999
Outputted By AR_CAD Ver.1.6.0
  0
SECTION
  2
HEADER
  9
$ACADVER
  1
AC1014
  9
$DWGCODEPAGE
  3
ANSI_932
  9
$EXTMIN
 10
0
 20
0
  9
$EXTMAX
 10
8316
 20
5880
  9
$INSBASE
 10
0.0
 20
0.0
 30
0.0
  9
$HANDLING
 70
     1
  9
$HANDSEED
  5
81A
  9
$LTSCALE
 40
1
  0
ENDSEC
  0
SECTION
  2
TABLES
  0
TABLE
  2
VPORT
  5
1
100
AcDbSymbolTable
 70
     1
  0
VPORT
  5
30
100
AcDbSymbolTableRecord
100
AcDbViewportTableRecord
  2
*ACTIVE
 70
     0
 10
0.0
 20
0.0
 11
1.0
 21
1.0
 12
210.0
 22
148.5
 13
0.0
 23
0.0
 14
10.0
 24
10.0
 15
10.0
 25
10.0
 16
0.0
 26
0.0
 36
1.0
 17
0.0
 27
0.0
 37
0.0
 40
302.94
 41
1.333333
 42
50.0
 43
0.0
 44
0.0
 50
0.0
 51
0.0
 71
     0
 72
   100
 73
     1
 74
     1
 75
     0
 76
     0
 77
     0
 78
     0
  0
ENDTAB
  0
TABLE
  2
LTYPE
  5
2
100
AcDbSymbolTable
 70
     20
  0
LTYPE
  5
31
100
AcDbSymbolTableRecord
100
AcDbLinetypeTableRecord
  2
BYBLOCK
 70
    64
 3

 72
    65
 73
    0
 40
    0
  0
LTYPE
  5
32
100
AcDbSymbolTableRecord
100
AcDbLinetypeTableRecord
  2
BYLAYER
 70
    64
 3

 72
    65
 73
    0
 40
    0
  0
LTYPE
  5
33
100
AcDbSymbolTableRecord
100
AcDbLinetypeTableRecord
  2
CONTINUOUS
 70
    64
 3
CONTINUOUS
 72
    65
 73
    0
 40
    0
  0
LTYPE
  5
34
100
AcDbSymbolTableRecord
100
AcDbLinetypeTableRecord
  2
DASHED
 70
    64
 3

 72
    65
 73
    2
 40
    3
 49
    2.5
 74
    0
 49
    -0.5
 74
    0
  0
LTYPE
  5
35
100
AcDbSymbolTableRecord
100
AcDbLinetypeTableRecord
  2
DOT
 70
    64
 3

 72
    65
 73
    2
 40
    1
 49
    0.5
 74
    0
 49
    -0.5
 74
    0
  0
LTYPE
  5
36
100
AcDbSymbolTableRecord
100
AcDbLinetypeTableRecord
  2
DASHDOT
 70
    64
 3

 72
    65
 73
    4
 40
    3
 49
    2.14285714285714
 74
    0
 49
    -0.321428571428571
 74
    0
 49
    0.214285714285714
 74
    0
 49
    -0.321428571428571
 74
    0
  0
LTYPE
  5
37
100
AcDbSymbolTableRecord
100
AcDbLinetypeTableRecord
  2
DIVIDE
 70
    64
 3

 72
    65
 73
    6
 40
    3
 49
    1.81818181818182
 74
    0
 49
    -0.272727272727273
 74
    0
 49
    0.181818181818182
 74
    0
 49
    -0.272727272727273
 74
    0
 49
    0.181818181818182
 74
    0
 49
    -0.272727272727273
 74
    0
  0
LTYPE
  5
38
100
AcDbSymbolTableRecord
100
AcDbLinetypeTableRecord
  2
HIDDEN
 70
    64
 3

 72
    65
 73
    2
 40
    4
 49
    2.66666666666667
 74
    0
 49
    -1.33333333333333
 74
    0
  0
LTYPE
  5
39
100
AcDbSymbolTableRecord
100
AcDbLinetypeTableRecord
  2
CENTER2
 70
    64
 3

 72
    65
 73
    4
 40
    28.575
 49
    19.05
 74
    0
 49
    -3.175
 74
    0
 49
    3.175
 74
    0
 49
    -3.175
 74
    0
  0
LTYPE
  5
3A
100
AcDbSymbolTableRecord
100
AcDbLinetypeTableRecord
  2
PHANTOM2
 70
    64
 3

 72
    65
 73
    6
 40
    31.75
 49
    15.875
 74
    0
 49
    -3.175
 74
    0
 49
    3.175
 74
    0
 49
    -3.175
 74
    0
 49
    3.175
 74
    0
 49
    -3.175
 74
    0
  0
LTYPE
  5
3B
100
AcDbSymbolTableRecord
100
AcDbLinetypeTableRecord
  2
DASHED2
 70
    64
 3

 72
    65
 73
    2
 40
    9.525
 49
    6.35
 74
    0
 49
    -3.175
 74
    0
  0
LTYPE
  5
3C
100
AcDbSymbolTableRecord
100
AcDbLinetypeTableRecord
  2
AM_ISO02W050
 70
    64
 3

 72
    65
 73
    2
 40
    7.5
 49
    6
 74
    0
 49
    -1.5
 74
    0
  0
LTYPE
  5
3D
100
AcDbSymbolTableRecord
100
AcDbLinetypeTableRecord
  2
Amzigzag
 70
    64
 3

 72
    65
 73
    2
 40
    4
 49
    2
 74
    0
 49
    -2
 74
    0
  0
LTYPE
  5
3E
100
AcDbSymbolTableRecord
100
AcDbLinetypeTableRecord
  2
ACISOWELD
 70
    64
 3

 72
    65
 73
    2
 40
    2
 49
    1.33333333333333
 74
    0
 49
    -0.666666666666667
 74
    0
  0
LTYPE
  5
3F
100
AcDbSymbolTableRecord
100
AcDbLinetypeTableRecord
  2
ACISOTGB
 70
    64
 3

 72
    65
 73
    6
 40
    9
 49
    4
 74
    0
 49
    -1
 74
    0
 49
    1
 74
    0
 49
    -1
 74
    0
 49
    1
 74
    0
 49
    -1
 74
    0
  0
LTYPE
  5
40
100
AcDbSymbolTableRecord
100
AcDbLinetypeTableRecord
  2
ACISOTGL
 70
    64
 3

 72
    65
 73
    2
 40
    3
 49
    2
 74
    0
 49
    -1
 74
    0
  0
LTYPE
  5
41
100
AcDbSymbolTableRecord
100
AcDbLinetypeTableRecord
  2
AM_ISO08W050
 70
    64
 3

 72
    65
 73
    4
 40
    18
 49
    12
 74
    0
 49
    -1.5
 74
    0
 49
    3
 74
    0
 49
    -1.5
 74
    0
  0
LTYPE
  5
42
100
AcDbSymbolTableRecord
100
AcDbLinetypeTableRecord
  2
AM_ISO09W050
 70
    64
 3

 72
    65
 73
    6
 40
    22.5
 49
    12
 74
    0
 49
    -1.5
 74
    0
 49
    3
 74
    0
 49
    -1.5
 74
    0
 49
    3
 74
    0
 49
    -1.5
 74
    0
  0
LTYPE
  5
43
100
AcDbSymbolTableRecord
100
AcDbLinetypeTableRecord
  2
Amconstr
 70
    64
 3

 72
    65
 73
    1
 40
    9999
 49
    9999
 74
    0
  0
LTYPE
  5
44
100
AcDbSymbolTableRecord
100
AcDbLinetypeTableRecord
  2
AM_ISO08W050x2
 70
    64
 3

 72
    65
 73
    4
 40
    9
 49
    6
 74
    0
 49
    -0.75
 74
    0
 49
    1.5
 74
    0
 49
    -0.75
 74
    0
  0
LTYPE
  5
45
100
AcDbSymbolTableRecord
100
AcDbLinetypeTableRecord
  2
AM_ISO02W050x2
 70
    64
 3

 72
    65
 73
    2
 40
    3.75
 49
    3
 74
    0
 49
    -0.75
 74
    0
  0
ENDTAB
  0
TABLE
  2
LAYER
  5
3
100
AcDbSymbolTable
 70
   257
  0
LAYER
  5
46
100
AcDbSymbolTableRecord
100
AcDbLayerTableRecord
  2
0
 70
    0
 62
7
  6
CONTINUOUS
  0
LAYER
  5
47
100
AcDbSymbolTableRecord
100
AcDbLayerTableRecord
  2
Defpoints
 70
    0
 62
7
  6
CONTINUOUS
  0
LAYER
  5
48
100
AcDbSymbolTableRecord
100
AcDbLayerTableRecord
  2
AM_0
 70
    0
 62
7
  6
CONTINUOUS
  0
LAYER
  5
49
100
AcDbSymbolTableRecord
100
AcDbLayerTableRecord
  2
AM_5
 70
    0
 62
3
  6
CONTINUOUS
  0
LAYER
  5
4A
100
AcDbSymbolTableRecord
100
AcDbLayerTableRecord
  2
AM_7
 70
    0
 62
4
  6
AM_ISO02W050
  0
LAYER
  5
4B
100
AcDbSymbolTableRecord
100
AcDbLayerTableRecord
  2
CONT_S_2
 70
    0
 62
2
  6
CONTINUOUS
  0
LAYER
  5
4C
100
AcDbSymbolTableRecord
100
AcDbLayerTableRecord
  2
CONT_S_4
 70
    0
 62
4
  6
CONTINUOUS
  0
LAYER
  5
4D
100
AcDbSymbolTableRecord
100
AcDbLayerTableRecord
  2
AM_6
 70
    0
 62
2
  6
CONTINUOUS
  0
LAYER
  5
4E
100
AcDbSymbolTableRecord
100
AcDbLayerTableRecord
  2
AM_BOR
 70
    0
 62
7
  6
CONTINUOUS
  0
LAYER
  5
4F
100
AcDbSymbolTableRecord
100
AcDbLayerTableRecord
  2
画層9
 70
    0
 62
111
  6
CONTINUOUS
  0
LAYER
  5
50
100
AcDbSymbolTableRecord
100
AcDbLayerTableRecord
  2
画層10
 70
    0
 62
-91
  6
CONTINUOUS
  0
LAYER
  5
51
100
AcDbSymbolTableRecord
100
AcDbLayerTableRecord
  2
画層11
 70
    0
 62
-131
  6
CONTINUOUS
  0
LAYER
  5
52
100
AcDbSymbolTableRecord
100
AcDbLayerTableRecord
  2
画層12
 70
    0
 62
-161
  6
CONTINUOUS
  0
LAYER
  5
53
100
AcDbSymbolTableRecord
100
AcDbLayerTableRecord
  2
画層13
 70
    0
 62
-5
  6
CONTINUOUS
  0
LAYER
  5
54
100
AcDbSymbolTableRecord
100
AcDbLayerTableRecord
  2
画層14
 70
    0
 62
-7
  6
CONTINUOUS
  0
LAYER
  5
55
100
AcDbSymbolTableRecord
100
AcDbLayerTableRecord
  2
画層15
 70
    0
 62
-11
  6
CONTINUOUS
  0
LAYER
  5
56
100
AcDbSymbolTableRecord
100
AcDbLayerTableRecord
  2
画層16
 70
    0
 62
-7
  6
CONTINUOUS
  0
LAYER
  5
57
100
AcDbSymbolTableRecord
100
AcDbLayerTableRecord
  2
画層17
 70
    0
 62
-70
  6
CONTINUOUS
  0
LAYER
  5
58
100
AcDbSymbolTableRecord
100
AcDbLayerTableRecord
  2
画層18
 70
    0
 62
-211
  6
CONTINUOUS
  0
LAYER
  5
59
100
AcDbSymbolTableRecord
100
AcDbLayerTableRecord
  2
画層19
 70
    0
 62
-137
  6
CONTINUOUS
  0
LAYER
  5
5A
100
AcDbSymbolTableRecord
100
AcDbLayerTableRecord
  2
画層20
 70
    0
 62
-4
  6
CONTINUOUS
  0
LAYER
  5
5B
100
AcDbSymbolTableRecord
100
AcDbLayerTableRecord
  2
画層21
 70
    0
 62
131
  6
CONTINUOUS
  0
LAYER
  5
5C
100
AcDbSymbolTableRecord
100
AcDbLayerTableRecord
  2
画層22
 70
    0
 62
4
  6
CONTINUOUS
  0
LAYER
  5
5D
100
AcDbSymbolTableRecord
100
AcDbLayerTableRecord
  2
画層23
 70
    0
 62
4
  6
CONTINUOUS
  0
LAYER
  5
5E
100
AcDbSymbolTableRecord
100
AcDbLayerTableRecord
  2
画層24
 70
    0
 62
7
  6
CONTINUOUS
  0
LAYER
  5
5F
100
AcDbSymbolTableRecord
100
AcDbLayerTableRecord
  2
画層25
 70
    0
 62
7
  6
CONTINUOUS
  0
LAYER
  5
60
100
AcDbSymbolTableRecord
100
AcDbLayerTableRecord
  2
画層26
 70
    0
 62
7
  6
CONTINUOUS
  0
LAYER
  5
61
100
AcDbSymbolTableRecord
100
AcDbLayerTableRecord
  2
画層27
 70
    0
 62
7
  6
CONTINUOUS
  0
LAYER
  5
62
100
AcDbSymbolTableRecord
100
AcDbLayerTableRecord
  2
画層28
 70
    0
 62
7
  6
CONTINUOUS
  0
LAYER
  5
63
100
AcDbSymbolTableRecord
100
AcDbLayerTableRecord
  2
画層29
 70
    0
 62
7
  6
CONTINUOUS
  0
LAYER
  5
64
100
AcDbSymbolTableRecord
100
AcDbLayerTableRecord
  2
画層30
 70
    0
 62
7
  6
CONTINUOUS
  0
LAYER
  5
65
100
AcDbSymbolTableRecord
100
AcDbLayerTableRecord
  2
画層31
 70
    0
 62
7
  6
CONTINUOUS
  0
LAYER
  5
66
100
AcDbSymbolTableRecord
100
AcDbLayerTableRecord
  2
画層32
 70
    0
 62
7
  6
CONTINUOUS
  0
LAYER
  5
67
100
AcDbSymbolTableRecord
100
AcDbLayerTableRecord
  2
画層33
 70
    0
 62
7
  6
CONTINUOUS
  0
LAYER
  5
68
100
AcDbSymbolTableRecord
100
AcDbLayerTableRecord
  2
画層34
 70
    0
 62
7
  6
CONTINUOUS
  0
LAYER
  5
69
100
AcDbSymbolTableRecord
100
AcDbLayerTableRecord
  2
画層35
 70
    0
 62
7
  6
CONTINUOUS
  0
LAYER
  5
6A
100
AcDbSymbolTableRecord
100
AcDbLayerTableRecord
  2
画層36
 70
    0
 62
7
  6
CONTINUOUS
  0
LAYER
  5
6B
100
AcDbSymbolTableRecord
100
AcDbLayerTableRecord
  2
画層37
 70
    0
 62
7
  6
CONTINUOUS
  0
LAYER
  5
6C
100
AcDbSymbolTableRecord
100
AcDbLayerTableRecord
  2
画層38
 70
    0
 62
7
  6
CONTINUOUS
  0
LAYER
  5
6D
100
AcDbSymbolTableRecord
100
AcDbLayerTableRecord
  2
画層39
 70
    0
 62
7
  6
CONTINUOUS
  0
LAYER
  5
6E
100
AcDbSymbolTableRecord
100
AcDbLayerTableRecord
  2
画層40
 70
    0
 62
7
  6
CONTINUOUS
  0
LAYER
  5
6F
100
AcDbSymbolTableRecord
100
AcDbLayerTableRecord
  2
画層41
 70
    0
 62
7
  6
CONTINUOUS
  0
LAYER
  5
70
100
AcDbSymbolTableRecord
100
AcDbLayerTableRecord
  2
画層42
 70
    0
 62
7
  6
CONTINUOUS
  0
LAYER
  5
71
100
AcDbSymbolTableRecord
100
AcDbLayerTableRecord
  2
画層43
 70
    0
 62
7
  6
CONTINUOUS
  0
LAYER
  5
72
100
AcDbSymbolTableRecord
100
AcDbLayerTableRecord
  2
画層44
 70
    0
 62
7
  6
CONTINUOUS
  0
LAYER
  5
73
100
AcDbSymbolTableRecord
100
AcDbLayerTableRecord
  2
画層45
 70
    0
 62
7
  6
CONTINUOUS
  0
LAYER
  5
74
100
AcDbSymbolTableRecord
100
AcDbLayerTableRecord
  2
画層46
 70
    0
 62
7
  6
CONTINUOUS
  0
LAYER
  5
75
100
AcDbSymbolTableRecord
100
AcDbLayerTableRecord
  2
画層47
 70
    0
 62
7
  6
CONTINUOUS
  0
LAYER
  5
76
100
AcDbSymbolTableRecord
100
AcDbLayerTableRecord
  2
画層48
 70
    0
 62
7
  6
CONTINUOUS
  0
LAYER
  5
77
100
AcDbSymbolTableRecord
100
AcDbLayerTableRecord
  2
画層49
 70
    0
 62
7
  6
CONTINUOUS
  0
LAYER
  5
78
100
AcDbSymbolTableRecord
100
AcDbLayerTableRecord
  2
画層50
 70
    0
 62
7
  6
CONTINUOUS
  0
LAYER
  5
79
100
AcDbSymbolTableRecord
100
AcDbLayerTableRecord
  2
画層51
 70
    0
 62
7
  6
CONTINUOUS
  0
LAYER
  5
7A
100
AcDbSymbolTableRecord
100
AcDbLayerTableRecord
  2
画層52
 70
    0
 62
7
  6
CONTINUOUS
  0
LAYER
  5
7B
100
AcDbSymbolTableRecord
100
AcDbLayerTableRecord
  2
画層53
 70
    0
 62
7
  6
CONTINUOUS
  0
LAYER
  5
7C
100
AcDbSymbolTableRecord
100
AcDbLayerTableRecord
  2
画層54
 70
    0
 62
7
  6
CONTINUOUS
  0
LAYER
  5
7D
100
AcDbSymbolTableRecord
100
AcDbLayerTableRecord
  2
画層55
 70
    0
 62
7
  6
CONTINUOUS
  0
LAYER
  5
7E
100
AcDbSymbolTableRecord
100
AcDbLayerTableRecord
  2
画層56
 70
    0
 62
7
  6
CONTINUOUS
  0
LAYER
  5
7F
100
AcDbSymbolTableRecord
100
AcDbLayerTableRecord
  2
画層57
 70
    0
 62
7
  6
CONTINUOUS
  0
LAYER
  5
80
100
AcDbSymbolTableRecord
100
AcDbLayerTableRecord
  2
画層58
 70
    0
 62
7
  6
CONTINUOUS
  0
LAYER
  5
81
100
AcDbSymbolTableRecord
100
AcDbLayerTableRecord
  2
画層59
 70
    0
 62
7
  6
CONTINUOUS
  0
LAYER
  5
82
100
AcDbSymbolTableRecord
100
AcDbLayerTableRecord
  2
画層60
 70
    0
 62
7
  6
CONTINUOUS
  0
LAYER
  5
83
100
AcDbSymbolTableRecord
100
AcDbLayerTableRecord
  2
画層61
 70
    0
 62
7
  6
CONTINUOUS
  0
LAYER
  5
84
100
AcDbSymbolTableRecord
100
AcDbLayerTableRecord
  2
画層62
 70
    0
 62
7
  6
CONTINUOUS
  0
LAYER
  5
85
100
AcDbSymbolTableRecord
100
AcDbLayerTableRecord
  2
画層63
 70
    0
 62
7
  6
CONTINUOUS
  0
LAYER
  5
86
100
AcDbSymbolTableRecord
100
AcDbLayerTableRecord
  2
画層64
 70
    0
 62
7
  6
CONTINUOUS
  0
LAYER
  5
87
100
AcDbSymbolTableRecord
100
AcDbLayerTableRecord
  2
画層65
 70
    0
 62
7
  6
CONTINUOUS
  0
LAYER
  5
88
100
AcDbSymbolTableRecord
100
AcDbLayerTableRecord
  2
画層66
 70
    0
 62
7
  6
CONTINUOUS
  0
LAYER
  5
89
100
AcDbSymbolTableRecord
100
AcDbLayerTableRecord
  2
画層67
 70
    0
 62
7
  6
CONTINUOUS
  0
LAYER
  5
8A
100
AcDbSymbolTableRecord
100
AcDbLayerTableRecord
  2
画層68
 70
    0
 62
7
  6
CONTINUOUS
  0
LAYER
  5
8B
100
AcDbSymbolTableRecord
100
AcDbLayerTableRecord
  2
画層69
 70
    0
 62
7
  6
CONTINUOUS
  0
LAYER
  5
8C
100
AcDbSymbolTableRecord
100
AcDbLayerTableRecord
  2
画層70
 70
    0
 62
7
  6
CONTINUOUS
  0
LAYER
  5
8D
100
AcDbSymbolTableRecord
100
AcDbLayerTableRecord
  2
画層71
 70
    0
 62
7
  6
CONTINUOUS
  0
LAYER
  5
8E
100
AcDbSymbolTableRecord
100
AcDbLayerTableRecord
  2
画層72
 70
    0
 62
7
  6
CONTINUOUS
  0
LAYER
  5
8F
100
AcDbSymbolTableRecord
100
AcDbLayerTableRecord
  2
画層73
 70
    0
 62
7
  6
CONTINUOUS
  0
LAYER
  5
90
100
AcDbSymbolTableRecord
100
AcDbLayerTableRecord
  2
画層74
 70
    0
 62
7
  6
CONTINUOUS
  0
LAYER
  5
91
100
AcDbSymbolTableRecord
100
AcDbLayerTableRecord
  2
画層75
 70
    0
 62
7
  6
CONTINUOUS
  0
LAYER
  5
92
100
AcDbSymbolTableRecord
100
AcDbLayerTableRecord
  2
画層76
 70
    0
 62
7
  6
CONTINUOUS
  0
LAYER
  5
93
100
AcDbSymbolTableRecord
100
AcDbLayerTableRecord
  2
画層77
 70
    0
 62
7
  6
CONTINUOUS
  0
LAYER
  5
94
100
AcDbSymbolTableRecord
100
AcDbLayerTableRecord
  2
画層78
 70
    0
 62
7
  6
CONTINUOUS
  0
LAYER
  5
95
100
AcDbSymbolTableRecord
100
AcDbLayerTableRecord
  2
画層79
 70
    0
 62
7
  6
CONTINUOUS
  0
LAYER
  5
96
100
AcDbSymbolTableRecord
100
AcDbLayerTableRecord
  2
画層80
 70
    0
 62
7
  6
CONTINUOUS
  0
LAYER
  5
97
100
AcDbSymbolTableRecord
100
AcDbLayerTableRecord
  2
画層81
 70
    0
 62
7
  6
CONTINUOUS
  0
LAYER
  5
98
100
AcDbSymbolTableRecord
100
AcDbLayerTableRecord
  2
画層82
 70
    0
 62
7
  6
CONTINUOUS
  0
LAYER
  5
99
100
AcDbSymbolTableRecord
100
AcDbLayerTableRecord
  2
画層83
 70
    0
 62
7
  6
CONTINUOUS
  0
LAYER
  5
9A
100
AcDbSymbolTableRecord
100
AcDbLayerTableRecord
  2
画層84
 70
    0
 62
7
  6
CONTINUOUS
  0
LAYER
  5
9B
100
AcDbSymbolTableRecord
100
AcDbLayerTableRecord
  2
画層85
 70
    0
 62
7
  6
CONTINUOUS
  0
LAYER
  5
9C
100
AcDbSymbolTableRecord
100
AcDbLayerTableRecord
  2
画層86
 70
    0
 62
7
  6
CONTINUOUS
  0
LAYER
  5
9D
100
AcDbSymbolTableRecord
100
AcDbLayerTableRecord
  2
画層87
 70
    0
 62
7
  6
CONTINUOUS
  0
LAYER
  5
9E
100
AcDbSymbolTableRecord
100
AcDbLayerTableRecord
  2
画層88
 70
    0
 62
7
  6
CONTINUOUS
  0
LAYER
  5
9F
100
AcDbSymbolTableRecord
100
AcDbLayerTableRecord
  2
画層89
 70
    0
 62
7
  6
CONTINUOUS
  0
LAYER
  5
A0
100
AcDbSymbolTableRecord
100
AcDbLayerTableRecord
  2
画層90
 70
    0
 62
7
  6
CONTINUOUS
  0
LAYER
  5
A1
100
AcDbSymbolTableRecord
100
AcDbLayerTableRecord
  2
画層91
 70
    0
 62
7
  6
CONTINUOUS
  0
LAYER
  5
A2
100
AcDbSymbolTableRecord
100
AcDbLayerTableRecord
  2
画層92
 70
    0
 62
7
  6
CONTINUOUS
  0
LAYER
  5
A3
100
AcDbSymbolTableRecord
100
AcDbLayerTableRecord
  2
画層93
 70
    0
 62
7
  6
CONTINUOUS
  0
LAYER
  5
A4
100
AcDbSymbolTableRecord
100
AcDbLayerTableRecord
  2
画層94
 70
    0
 62
7
  6
CONTINUOUS
  0
LAYER
  5
A5
100
AcDbSymbolTableRecord
100
AcDbLayerTableRecord
  2
画層95
 70
    0
 62
7
  6
CONTINUOUS
  0
LAYER
  5
A6
100
AcDbSymbolTableRecord
100
AcDbLayerTableRecord
  2
画層96
 70
    0
 62
7
  6
CONTINUOUS
  0
LAYER
  5
A7
100
AcDbSymbolTableRecord
100
AcDbLayerTableRecord
  2
画層97
 70
    0
 62
7
  6
CONTINUOUS
  0
LAYER
  5
A8
100
AcDbSymbolTableRecord
100
AcDbLayerTableRecord
  2
画層98
 70
    0
 62
7
  6
CONTINUOUS
  0
LAYER
  5
A9
100
AcDbSymbolTableRecord
100
AcDbLayerTableRecord
  2
画層99
 70
    0
 62
7
  6
CONTINUOUS
  0
LAYER
  5
AA
100
AcDbSymbolTableRecord
100
AcDbLayerTableRecord
  2
画層100
 70
    0
 62
7
  6
CONTINUOUS
  0
LAYER
  5
AB
100
AcDbSymbolTableRecord
100
AcDbLayerTableRecord
  2
画層101
 70
    0
 62
7
  6
CONTINUOUS
  0
LAYER
  5
AC
100
AcDbSymbolTableRecord
100
AcDbLayerTableRecord
  2
画層102
 70
    0
 62
7
  6
CONTINUOUS
  0
LAYER
  5
AD
100
AcDbSymbolTableRecord
100
AcDbLayerTableRecord
  2
画層103
 70
    0
 62
7
  6
CONTINUOUS
  0
LAYER
  5
AE
100
AcDbSymbolTableRecord
100
AcDbLayerTableRecord
  2
画層104
 70
    0
 62
7
  6
CONTINUOUS
  0
LAYER
  5
AF
100
AcDbSymbolTableRecord
100
AcDbLayerTableRecord
  2
画層105
 70
    0
 62
7
  6
CONTINUOUS
  0
LAYER
  5
B0
100
AcDbSymbolTableRecord
100
AcDbLayerTableRecord
  2
画層106
 70
    0
 62
7
  6
CONTINUOUS
  0
LAYER
  5
B1
100
AcDbSymbolTableRecord
100
AcDbLayerTableRecord
  2
画層107
 70
    0
 62
7
  6
CONTINUOUS
  0
LAYER
  5
B2
100
AcDbSymbolTableRecord
100
AcDbLayerTableRecord
  2
画層108
 70
    0
 62
7
  6
CONTINUOUS
  0
LAYER
  5
B3
100
AcDbSymbolTableRecord
100
AcDbLayerTableRecord
  2
画層109
 70
    0
 62
7
  6
CONTINUOUS
  0
LAYER
  5
B4
100
AcDbSymbolTableRecord
100
AcDbLayerTableRecord
  2
画層110
 70
    0
 62
7
  6
CONTINUOUS
  0
LAYER
  5
B5
100
AcDbSymbolTableRecord
100
AcDbLayerTableRecord
  2
画層111
 70
    0
 62
7
  6
CONTINUOUS
  0
LAYER
  5
B6
100
AcDbSymbolTableRecord
100
AcDbLayerTableRecord
  2
画層112
 70
    0
 62
7
  6
CONTINUOUS
  0
LAYER
  5
B7
100
AcDbSymbolTableRecord
100
AcDbLayerTableRecord
  2
画層113
 70
    0
 62
7
  6
CONTINUOUS
  0
LAYER
  5
B8
100
AcDbSymbolTableRecord
100
AcDbLayerTableRecord
  2
画層114
 70
    0
 62
7
  6
CONTINUOUS
  0
LAYER
  5
B9
100
AcDbSymbolTableRecord
100
AcDbLayerTableRecord
  2
画層115
 70
    0
 62
7
  6
CONTINUOUS
  0
LAYER
  5
BA
100
AcDbSymbolTableRecord
100
AcDbLayerTableRecord
  2
画層116
 70
    0
 62
7
  6
CONTINUOUS
  0
LAYER
  5
BB
100
AcDbSymbolTableRecord
100
AcDbLayerTableRecord
  2
画層117
 70
    0
 62
7
  6
CONTINUOUS
  0
LAYER
  5
BC
100
AcDbSymbolTableRecord
100
AcDbLayerTableRecord
  2
画層118
 70
    0
 62
7
  6
CONTINUOUS
  0
LAYER
  5
BD
100
AcDbSymbolTableRecord
100
AcDbLayerTableRecord
  2
画層119
 70
    0
 62
7
  6
CONTINUOUS
  0
LAYER
  5
BE
100
AcDbSymbolTableRecord
100
AcDbLayerTableRecord
  2
画層120
 70
    0
 62
7
  6
CONTINUOUS
  0
LAYER
  5
BF
100
AcDbSymbolTableRecord
100
AcDbLayerTableRecord
  2
画層121
 70
    0
 62
7
  6
CONTINUOUS
  0
LAYER
  5
C0
100
AcDbSymbolTableRecord
100
AcDbLayerTableRecord
  2
画層122
 70
    0
 62
7
  6
CONTINUOUS
  0
LAYER
  5
C1
100
AcDbSymbolTableRecord
100
AcDbLayerTableRecord
  2
画層123
 70
    0
 62
7
  6
CONTINUOUS
  0
LAYER
  5
C2
100
AcDbSymbolTableRecord
100
AcDbLayerTableRecord
  2
画層124
 70
    0
 62
7
  6
CONTINUOUS
  0
LAYER
  5
C3
100
AcDbSymbolTableRecord
100
AcDbLayerTableRecord
  2
画層125
 70
    0
 62
7
  6
CONTINUOUS
  0
LAYER
  5
C4
100
AcDbSymbolTableRecord
100
AcDbLayerTableRecord
  2
画層126
 70
    0
 62
7
  6
CONTINUOUS
  0
LAYER
  5
C5
100
AcDbSymbolTableRecord
100
AcDbLayerTableRecord
  2
画層127
 70
    0
 62
7
  6
CONTINUOUS
  0
LAYER
  5
C6
100
AcDbSymbolTableRecord
100
AcDbLayerTableRecord
  2
画層128
 70
    0
 62
7
  6
CONTINUOUS
  0
LAYER
  5
C7
100
AcDbSymbolTableRecord
100
AcDbLayerTableRecord
  2
画層129
 70
    0
 62
7
  6
CONTINUOUS
  0
LAYER
  5
C8
100
AcDbSymbolTableRecord
100
AcDbLayerTableRecord
  2
画層130
 70
    0
 62
7
  6
CONTINUOUS
  0
LAYER
  5
C9
100
AcDbSymbolTableRecord
100
AcDbLayerTableRecord
  2
画層131
 70
    0
 62
7
  6
CONTINUOUS
  0
LAYER
  5
CA
100
AcDbSymbolTableRecord
100
AcDbLayerTableRecord
  2
画層132
 70
    0
 62
7
  6
CONTINUOUS
  0
LAYER
  5
CB
100
AcDbSymbolTableRecord
100
AcDbLayerTableRecord
  2
画層133
 70
    0
 62
7
  6
CONTINUOUS
  0
LAYER
  5
CC
100
AcDbSymbolTableRecord
100
AcDbLayerTableRecord
  2
画層134
 70
    0
 62
7
  6
CONTINUOUS
  0
LAYER
  5
CD
100
AcDbSymbolTableRecord
100
AcDbLayerTableRecord
  2
画層135
 70
    0
 62
7
  6
CONTINUOUS
  0
LAYER
  5
CE
100
AcDbSymbolTableRecord
100
AcDbLayerTableRecord
  2
画層136
 70
    0
 62
7
  6
CONTINUOUS
  0
LAYER
  5
CF
100
AcDbSymbolTableRecord
100
AcDbLayerTableRecord
  2
画層137
 70
    0
 62
7
  6
CONTINUOUS
  0
LAYER
  5
D0
100
AcDbSymbolTableRecord
100
AcDbLayerTableRecord
  2
画層138
 70
    0
 62
7
  6
CONTINUOUS
  0
LAYER
  5
D1
100
AcDbSymbolTableRecord
100
AcDbLayerTableRecord
  2
画層139
 70
    0
 62
7
  6
CONTINUOUS
  0
LAYER
  5
D2
100
AcDbSymbolTableRecord
100
AcDbLayerTableRecord
  2
画層140
 70
    0
 62
7
  6
CONTINUOUS
  0
LAYER
  5
D3
100
AcDbSymbolTableRecord
100
AcDbLayerTableRecord
  2
画層141
 70
    0
 62
7
  6
CONTINUOUS
  0
LAYER
  5
D4
100
AcDbSymbolTableRecord
100
AcDbLayerTableRecord
  2
画層142
 70
    0
 62
7
  6
CONTINUOUS
  0
LAYER
  5
D5
100
AcDbSymbolTableRecord
100
AcDbLayerTableRecord
  2
画層143
 70
    0
 62
7
  6
CONTINUOUS
  0
LAYER
  5
D6
100
AcDbSymbolTableRecord
100
AcDbLayerTableRecord
  2
画層144
 70
    0
 62
7
  6
CONTINUOUS
  0
LAYER
  5
D7
100
AcDbSymbolTableRecord
100
AcDbLayerTableRecord
  2
画層145
 70
    0
 62
7
  6
CONTINUOUS
  0
LAYER
  5
D8
100
AcDbSymbolTableRecord
100
AcDbLayerTableRecord
  2
画層146
 70
    0
 62
7
  6
CONTINUOUS
  0
LAYER
  5
D9
100
AcDbSymbolTableRecord
100
AcDbLayerTableRecord
  2
画層147
 70
    0
 62
7
  6
CONTINUOUS
  0
LAYER
  5
DA
100
AcDbSymbolTableRecord
100
AcDbLayerTableRecord
  2
画層148
 70
    0
 62
7
  6
CONTINUOUS
  0
LAYER
  5
DB
100
AcDbSymbolTableRecord
100
AcDbLayerTableRecord
  2
画層149
 70
    0
 62
7
  6
CONTINUOUS
  0
LAYER
  5
DC
100
AcDbSymbolTableRecord
100
AcDbLayerTableRecord
  2
画層150
 70
    0
 62
7
  6
CONTINUOUS
  0
LAYER
  5
DD
100
AcDbSymbolTableRecord
100
AcDbLayerTableRecord
  2
画層151
 70
    0
 62
7
  6
CONTINUOUS
  0
LAYER
  5
DE
100
AcDbSymbolTableRecord
100
AcDbLayerTableRecord
  2
画層152
 70
    0
 62
7
  6
CONTINUOUS
  0
LAYER
  5
DF
100
AcDbSymbolTableRecord
100
AcDbLayerTableRecord
  2
画層153
 70
    0
 62
7
  6
CONTINUOUS
  0
LAYER
  5
E0
100
AcDbSymbolTableRecord
100
AcDbLayerTableRecord
  2
画層154
 70
    0
 62
7
  6
CONTINUOUS
  0
LAYER
  5
E1
100
AcDbSymbolTableRecord
100
AcDbLayerTableRecord
  2
画層155
 70
    0
 62
7
  6
CONTINUOUS
  0
LAYER
  5
E2
100
AcDbSymbolTableRecord
100
AcDbLayerTableRecord
  2
画層156
 70
    0
 62
7
  6
CONTINUOUS
  0
LAYER
  5
E3
100
AcDbSymbolTableRecord
100
AcDbLayerTableRecord
  2
画層157
 70
    0
 62
7
  6
CONTINUOUS
  0
LAYER
  5
E4
100
AcDbSymbolTableRecord
100
AcDbLayerTableRecord
  2
画層158
 70
    0
 62
7
  6
CONTINUOUS
  0
LAYER
  5
E5
100
AcDbSymbolTableRecord
100
AcDbLayerTableRecord
  2
画層159
 70
    0
 62
7
  6
CONTINUOUS
  0
LAYER
  5
E6
100
AcDbSymbolTableRecord
100
AcDbLayerTableRecord
  2
画層160
 70
    0
 62
7
  6
CONTINUOUS
  0
LAYER
  5
E7
100
AcDbSymbolTableRecord
100
AcDbLayerTableRecord
  2
画層161
 70
    0
 62
7
  6
CONTINUOUS
  0
LAYER
  5
E8
100
AcDbSymbolTableRecord
100
AcDbLayerTableRecord
  2
画層162
 70
    0
 62
7
  6
CONTINUOUS
  0
LAYER
  5
E9
100
AcDbSymbolTableRecord
100
AcDbLayerTableRecord
  2
画層163
 70
    0
 62
7
  6
CONTINUOUS
  0
LAYER
  5
EA
100
AcDbSymbolTableRecord
100
AcDbLayerTableRecord
  2
画層164
 70
    0
 62
7
  6
CONTINUOUS
  0
LAYER
  5
EB
100
AcDbSymbolTableRecord
100
AcDbLayerTableRecord
  2
画層165
 70
    0
 62
7
  6
CONTINUOUS
  0
LAYER
  5
EC
100
AcDbSymbolTableRecord
100
AcDbLayerTableRecord
  2
画層166
 70
    0
 62
7
  6
CONTINUOUS
  0
LAYER
  5
ED
100
AcDbSymbolTableRecord
100
AcDbLayerTableRecord
  2
画層167
 70
    0
 62
7
  6
CONTINUOUS
  0
LAYER
  5
EE
100
AcDbSymbolTableRecord
100
AcDbLayerTableRecord
  2
画層168
 70
    0
 62
7
  6
CONTINUOUS
  0
LAYER
  5
EF
100
AcDbSymbolTableRecord
100
AcDbLayerTableRecord
  2
画層169
 70
    0
 62
7
  6
CONTINUOUS
  0
LAYER
  5
F0
100
AcDbSymbolTableRecord
100
AcDbLayerTableRecord
  2
画層170
 70
    0
 62
7
  6
CONTINUOUS
  0
LAYER
  5
F1
100
AcDbSymbolTableRecord
100
AcDbLayerTableRecord
  2
画層171
 70
    0
 62
7
  6
CONTINUOUS
  0
LAYER
  5
F2
100
AcDbSymbolTableRecord
100
AcDbLayerTableRecord
  2
画層172
 70
    0
 62
7
  6
CONTINUOUS
  0
LAYER
  5
F3
100
AcDbSymbolTableRecord
100
AcDbLayerTableRecord
  2
画層173
 70
    0
 62
7
  6
CONTINUOUS
  0
LAYER
  5
F4
100
AcDbSymbolTableRecord
100
AcDbLayerTableRecord
  2
画層174
 70
    0
 62
7
  6
CONTINUOUS
  0
LAYER
  5
F5
100
AcDbSymbolTableRecord
100
AcDbLayerTableRecord
  2
画層175
 70
    0
 62
7
  6
CONTINUOUS
  0
LAYER
  5
F6
100
AcDbSymbolTableRecord
100
AcDbLayerTableRecord
  2
画層176
 70
    0
 62
7
  6
CONTINUOUS
  0
LAYER
  5
F7
100
AcDbSymbolTableRecord
100
AcDbLayerTableRecord
  2
画層177
 70
    0
 62
7
  6
CONTINUOUS
  0
LAYER
  5
F8
100
AcDbSymbolTableRecord
100
AcDbLayerTableRecord
  2
画層178
 70
    0
 62
7
  6
CONTINUOUS
  0
LAYER
  5
F9
100
AcDbSymbolTableRecord
100
AcDbLayerTableRecord
  2
画層179
 70
    0
 62
7
  6
CONTINUOUS
  0
LAYER
  5
FA
100
AcDbSymbolTableRecord
100
AcDbLayerTableRecord
  2
画層180
 70
    0
 62
7
  6
CONTINUOUS
  0
LAYER
  5
FB
100
AcDbSymbolTableRecord
100
AcDbLayerTableRecord
  2
画層181
 70
    0
 62
7
  6
CONTINUOUS
  0
LAYER
  5
FC
100
AcDbSymbolTableRecord
100
AcDbLayerTableRecord
  2
画層182
 70
    0
 62
7
  6
CONTINUOUS
  0
LAYER
  5
FD
100
AcDbSymbolTableRecord
100
AcDbLayerTableRecord
  2
画層183
 70
    0
 62
7
  6
CONTINUOUS
  0
LAYER
  5
FE
100
AcDbSymbolTableRecord
100
AcDbLayerTableRecord
  2
画層184
 70
    0
 62
7
  6
CONTINUOUS
  0
LAYER
  5
FF
100
AcDbSymbolTableRecord
100
AcDbLayerTableRecord
  2
画層185
 70
    0
 62
7
  6
CONTINUOUS
  0
LAYER
  5
100
100
AcDbSymbolTableRecord
100
AcDbLayerTableRecord
  2
画層186
 70
    0
 62
7
  6
CONTINUOUS
  0
LAYER
  5
101
100
AcDbSymbolTableRecord
100
AcDbLayerTableRecord
  2
画層187
 70
    0
 62
7
  6
CONTINUOUS
  0
LAYER
  5
102
100
AcDbSymbolTableRecord
100
AcDbLayerTableRecord
  2
画層188
 70
    0
 62
7
  6
CONTINUOUS
  0
LAYER
  5
103
100
AcDbSymbolTableRecord
100
AcDbLayerTableRecord
  2
画層189
 70
    0
 62
7
  6
CONTINUOUS
  0
LAYER
  5
104
100
AcDbSymbolTableRecord
100
AcDbLayerTableRecord
  2
画層190
 70
    0
 62
7
  6
CONTINUOUS
  0
LAYER
  5
105
100
AcDbSymbolTableRecord
100
AcDbLayerTableRecord
  2
画層191
 70
    0
 62
7
  6
CONTINUOUS
  0
LAYER
  5
106
100
AcDbSymbolTableRecord
100
AcDbLayerTableRecord
  2
画層192
 70
    0
 62
7
  6
CONTINUOUS
  0
LAYER
  5
107
100
AcDbSymbolTableRecord
100
AcDbLayerTableRecord
  2
画層193
 70
    0
 62
7
  6
CONTINUOUS
  0
LAYER
  5
108
100
AcDbSymbolTableRecord
100
AcDbLayerTableRecord
  2
画層194
 70
    0
 62
7
  6
CONTINUOUS
  0
LAYER
  5
109
100
AcDbSymbolTableRecord
100
AcDbLayerTableRecord
  2
画層195
 70
    0
 62
7
  6
CONTINUOUS
  0
LAYER
  5
10A
100
AcDbSymbolTableRecord
100
AcDbLayerTableRecord
  2
画層196
 70
    0
 62
7
  6
CONTINUOUS
  0
LAYER
  5
10B
100
AcDbSymbolTableRecord
100
AcDbLayerTableRecord
  2
画層197
 70
    0
 62
7
  6
CONTINUOUS
  0
LAYER
  5
10C
100
AcDbSymbolTableRecord
100
AcDbLayerTableRecord
  2
画層198
 70
    0
 62
7
  6
CONTINUOUS
  0
LAYER
  5
10D
100
AcDbSymbolTableRecord
100
AcDbLayerTableRecord
  2
画層199
 70
    0
 62
7
  6
CONTINUOUS
  0
LAYER
  5
10E
100
AcDbSymbolTableRecord
100
AcDbLayerTableRecord
  2
画層200
 70
    0
 62
7
  6
CONTINUOUS
  0
LAYER
  5
10F
100
AcDbSymbolTableRecord
100
AcDbLayerTableRecord
  2
画層201
 70
    0
 62
7
  6
CONTINUOUS
  0
LAYER
  5
110
100
AcDbSymbolTableRecord
100
AcDbLayerTableRecord
  2
画層202
 70
    0
 62
7
  6
CONTINUOUS
  0
LAYER
  5
111
100
AcDbSymbolTableRecord
100
AcDbLayerTableRecord
  2
画層203
 70
    0
 62
7
  6
CONTINUOUS
  0
LAYER
  5
112
100
AcDbSymbolTableRecord
100
AcDbLayerTableRecord
  2
画層204
 70
    0
 62
7
  6
CONTINUOUS
  0
LAYER
  5
113
100
AcDbSymbolTableRecord
100
AcDbLayerTableRecord
  2
画層205
 70
    0
 62
7
  6
CONTINUOUS
  0
LAYER
  5
114
100
AcDbSymbolTableRecord
100
AcDbLayerTableRecord
  2
画層206
 70
    0
 62
7
  6
CONTINUOUS
  0
LAYER
  5
115
100
AcDbSymbolTableRecord
100
AcDbLayerTableRecord
  2
画層207
 70
    0
 62
7
  6
CONTINUOUS
  0
LAYER
  5
116
100
AcDbSymbolTableRecord
100
AcDbLayerTableRecord
  2
画層208
 70
    0
 62
7
  6
CONTINUOUS
  0
LAYER
  5
117
100
AcDbSymbolTableRecord
100
AcDbLayerTableRecord
  2
画層209
 70
    0
 62
7
  6
CONTINUOUS
  0
LAYER
  5
118
100
AcDbSymbolTableRecord
100
AcDbLayerTableRecord
  2
画層210
 70
    0
 62
7
  6
CONTINUOUS
  0
LAYER
  5
119
100
AcDbSymbolTableRecord
100
AcDbLayerTableRecord
  2
画層211
 70
    0
 62
7
  6
CONTINUOUS
  0
LAYER
  5
11A
100
AcDbSymbolTableRecord
100
AcDbLayerTableRecord
  2
画層212
 70
    0
 62
7
  6
CONTINUOUS
  0
LAYER
  5
11B
100
AcDbSymbolTableRecord
100
AcDbLayerTableRecord
  2
画層213
 70
    0
 62
7
  6
CONTINUOUS
  0
LAYER
  5
11C
100
AcDbSymbolTableRecord
100
AcDbLayerTableRecord
  2
画層214
 70
    0
 62
7
  6
CONTINUOUS
  0
LAYER
  5
11D
100
AcDbSymbolTableRecord
100
AcDbLayerTableRecord
  2
画層215
 70
    0
 62
7
  6
CONTINUOUS
  0
LAYER
  5
11E
100
AcDbSymbolTableRecord
100
AcDbLayerTableRecord
  2
画層216
 70
    0
 62
7
  6
CONTINUOUS
  0
LAYER
  5
11F
100
AcDbSymbolTableRecord
100
AcDbLayerTableRecord
  2
画層217
 70
    0
 62
7
  6
CONTINUOUS
  0
LAYER
  5
120
100
AcDbSymbolTableRecord
100
AcDbLayerTableRecord
  2
画層218
 70
    0
 62
7
  6
CONTINUOUS
  0
LAYER
  5
121
100
AcDbSymbolTableRecord
100
AcDbLayerTableRecord
  2
画層219
 70
    0
 62
7
  6
CONTINUOUS
  0
LAYER
  5
122
100
AcDbSymbolTableRecord
100
AcDbLayerTableRecord
  2
画層220
 70
    0
 62
7
  6
CONTINUOUS
  0
LAYER
  5
123
100
AcDbSymbolTableRecord
100
AcDbLayerTableRecord
  2
画層221
 70
    0
 62
7
  6
CONTINUOUS
  0
LAYER
  5
124
100
AcDbSymbolTableRecord
100
AcDbLayerTableRecord
  2
画層222
 70
    0
 62
7
  6
CONTINUOUS
  0
LAYER
  5
125
100
AcDbSymbolTableRecord
100
AcDbLayerTableRecord
  2
画層223
 70
    0
 62
7
  6
CONTINUOUS
  0
LAYER
  5
126
100
AcDbSymbolTableRecord
100
AcDbLayerTableRecord
  2
画層224
 70
    0
 62
7
  6
CONTINUOUS
  0
LAYER
  5
127
100
AcDbSymbolTableRecord
100
AcDbLayerTableRecord
  2
画層225
 70
    0
 62
7
  6
CONTINUOUS
  0
LAYER
  5
128
100
AcDbSymbolTableRecord
100
AcDbLayerTableRecord
  2
画層226
 70
    0
 62
7
  6
CONTINUOUS
  0
LAYER
  5
129
100
AcDbSymbolTableRecord
100
AcDbLayerTableRecord
  2
画層227
 70
    0
 62
7
  6
CONTINUOUS
  0
LAYER
  5
12A
100
AcDbSymbolTableRecord
100
AcDbLayerTableRecord
  2
画層228
 70
    0
 62
7
  6
CONTINUOUS
  0
LAYER
  5
12B
100
AcDbSymbolTableRecord
100
AcDbLayerTableRecord
  2
画層229
 70
    0
 62
7
  6
CONTINUOUS
  0
LAYER
  5
12C
100
AcDbSymbolTableRecord
100
AcDbLayerTableRecord
  2
画層230
 70
    0
 62
7
  6
CONTINUOUS
  0
LAYER
  5
12D
100
AcDbSymbolTableRecord
100
AcDbLayerTableRecord
  2
画層231
 70
    0
 62
7
  6
CONTINUOUS
  0
LAYER
  5
12E
100
AcDbSymbolTableRecord
100
AcDbLayerTableRecord
  2
画層232
 70
    0
 62
7
  6
CONTINUOUS
  0
LAYER
  5
12F
100
AcDbSymbolTableRecord
100
AcDbLayerTableRecord
  2
画層233
 70
    0
 62
7
  6
CONTINUOUS
  0
LAYER
  5
130
100
AcDbSymbolTableRecord
100
AcDbLayerTableRecord
  2
画層234
 70
    0
 62
7
  6
CONTINUOUS
  0
LAYER
  5
131
100
AcDbSymbolTableRecord
100
AcDbLayerTableRecord
  2
画層235
 70
    0
 62
7
  6
CONTINUOUS
  0
LAYER
  5
132
100
AcDbSymbolTableRecord
100
AcDbLayerTableRecord
  2
画層236
 70
    0
 62
7
  6
CONTINUOUS
  0
LAYER
  5
133
100
AcDbSymbolTableRecord
100
AcDbLayerTableRecord
  2
画層237
 70
    0
 62
7
  6
CONTINUOUS
  0
LAYER
  5
134
100
AcDbSymbolTableRecord
100
AcDbLayerTableRecord
  2
画層238
 70
    0
 62
7
  6
CONTINUOUS
  0
LAYER
  5
135
100
AcDbSymbolTableRecord
100
AcDbLayerTableRecord
  2
画層239
 70
    0
 62
7
  6
CONTINUOUS
  0
LAYER
  5
136
100
AcDbSymbolTableRecord
100
AcDbLayerTableRecord
  2
画層240
 70
    0
 62
7
  6
CONTINUOUS
  0
LAYER
  5
137
100
AcDbSymbolTableRecord
100
AcDbLayerTableRecord
  2
画層241
 70
    0
 62
7
  6
CONTINUOUS
  0
LAYER
  5
138
100
AcDbSymbolTableRecord
100
AcDbLayerTableRecord
  2
画層242
 70
    0
 62
7
  6
CONTINUOUS
  0
LAYER
  5
139
100
AcDbSymbolTableRecord
100
AcDbLayerTableRecord
  2
画層243
 70
    0
 62
7
  6
CONTINUOUS
  0
LAYER
  5
13A
100
AcDbSymbolTableRecord
100
AcDbLayerTableRecord
  2
画層244
 70
    0
 62
7
  6
CONTINUOUS
  0
LAYER
  5
13B
100
AcDbSymbolTableRecord
100
AcDbLayerTableRecord
  2
画層245
 70
    0
 62
7
  6
CONTINUOUS
  0
LAYER
  5
13C
100
AcDbSymbolTableRecord
100
AcDbLayerTableRecord
  2
画層246
 70
    0
 62
7
  6
CONTINUOUS
  0
LAYER
  5
13D
100
AcDbSymbolTableRecord
100
AcDbLayerTableRecord
  2
画層247
 70
    0
 62
7
  6
CONTINUOUS
  0
LAYER
  5
13E
100
AcDbSymbolTableRecord
100
AcDbLayerTableRecord
  2
画層248
 70
    0
 62
7
  6
CONTINUOUS
  0
LAYER
  5
13F
100
AcDbSymbolTableRecord
100
AcDbLayerTableRecord
  2
画層249
 70
    0
 62
7
  6
CONTINUOUS
  0
LAYER
  5
140
100
AcDbSymbolTableRecord
100
AcDbLayerTableRecord
  2
画層250
 70
    0
 62
7
  6
CONTINUOUS
  0
LAYER
  5
141
100
AcDbSymbolTableRecord
100
AcDbLayerTableRecord
  2
画層251
 70
    0
 62
7
  6
CONTINUOUS
  0
LAYER
  5
142
100
AcDbSymbolTableRecord
100
AcDbLayerTableRecord
  2
画層252
 70
    0
 62
7
  6
CONTINUOUS
  0
LAYER
  5
143
100
AcDbSymbolTableRecord
100
AcDbLayerTableRecord
  2
画層253
 70
    0
 62
7
  6
CONTINUOUS
  0
LAYER
  5
144
100
AcDbSymbolTableRecord
100
AcDbLayerTableRecord
  2
画層254
 70
    0
 62
7
  6
CONTINUOUS
  0
LAYER
  5
145
100
AcDbSymbolTableRecord
100
AcDbLayerTableRecord
  2
画層255
 70
    0
 62
7
  6
CONTINUOUS
  0
ENDTAB
  0
TABLE
  2
STYLE
  5
4
100
AcDbSymbolTable
 70
     1
  0
STYLE
  5
146
100
AcDbSymbolTableRecord
100
AcDbTextStyleTableRecord
  2
Standard
 70
     0
 40
0.0
 41
1.0
 50
0.0
 71
     0
 42
3.2
  3
TXT
  4
BIGFONT
  0
STYLE
  5
147
100
AcDbSymbolTableRecord
100
AcDbTextStyleTableRecord
  2
Font_0
 70
     0
 40
0.0
 41
1.0
 50
0.0
 71
     0
 42
3.2
  3
MS Gothic.ttf
  4

1001
ACAD
1000
MS Gothic
1071
  32817
  0
ENDTAB
  0
TABLE
  2
VIEW
  5
5
100
AcDbSymbolTable
 70
     0
  0
ENDTAB
  0
TABLE
  2
UCS
  5
6
100
AcDbSymbolTable
 70
     0
  0
ENDTAB
  0
TABLE
  2
APPID
  5
7
100
AcDbSymbolTable
 70
     1
  0
APPID
  5
148
100
AcDbSymbolTableRecord
100
AcDbRegAppTableRecord
  2
ACAD
 70
     0
  0
ENDTAB
  0
TABLE
  2
DIMSTYLE
  5
8
100
AcDbSymbolTable
 70
     1
  0
DIMSTYLE
105
2A
100
AcDbSymbolTableRecord
100
AcDbDimStyleTableRecord
  2
STANDARD
 70
     0
  3

  4

  5

  6

  7

 40
1.0
 41
2.5
 42
2.0
 43
7.0
 44
1.25
 45
0.0
 46
0.0
 47
0.0
 48
0.0
 71
     0
 72
     0
 73
     0
 74
     0
 75
     0
 76
     0
 77
     1
 78
     0
140
2.5
141
2.5
142
0.0
143
0.0394
144
1.0
145
0.0
146
1.0
147
1.0
170
     0
171
     2
172
     0
173
     0
174
     1
175
     0
176
     0
177
     0
178
     0
270
     2
271
     2
272
     4
273
     2
274
     2
275
     0
280
     0
281
     0
282
     0
283
     1
284
     0
285
     0
286
     0
287
     3
288
     0
  0
ENDTAB
  0
TABLE
  2
BLOCK_RECORD
  5
9
100
AcDbSymbolTable
 70
     0
  0
BLOCK_RECORD
  5
149
100
AcDbSymbolTableRecord
100
AcDbBlockTableRecord
  2
*MODEL_SPACE
  0
BLOCK_RECORD
  5
14A
100
AcDbSymbolTableRecord
100
AcDbBlockTableRecord
  2
*PAPER_SPACE
  0
BLOCK_RECORD
  5
14B
100
AcDbSymbolTableRecord
100
AcDbBlockTableRecord
  2
GENAXEH
  0
BLOCK_RECORD
  5
14C
100
AcDbSymbolTableRecord
100
AcDbBlockTableRecord
  2
_OPEN
  0
BLOCK_RECORD
  5
14D
100
AcDbSymbolTableRecord
100
AcDbBlockTableRecord
  2
プッシュロック
  0
BLOCK_RECORD
  5
14E
100
AcDbSymbolTableRecord
100
AcDbBlockTableRecord
  2
引き手_TP1227_PV
  0
BLOCK_RECORD
  5
14F
100
AcDbSymbolTableRecord
100
AcDbBlockTableRecord
  2
戸当り_PV
  0
BLOCK_RECORD
  5
150
100
AcDbSymbolTableRecord
100
AcDbBlockTableRecord
  2
先付けビ_ドA_TP1330_
  0
BLOCK_RECORD
  5
151
100
AcDbSymbolTableRecord
100
AcDbBlockTableRecord
  2
3型_たて枠案
  0
BLOCK_RECORD
  5
152
100
AcDbSymbolTableRecord
100
AcDbBlockTableRecord
  2
XR1952_PV
  0
BLOCK_RECORD
  5
153
100
AcDbSymbolTableRecord
100
AcDbBlockTableRecord
  2
支柱案01
  0
BLOCK_RECORD
  5
154
100
AcDbSymbolTableRecord
100
AcDbBlockTableRecord
  2
引き手_TP1227__A3_SV
  0
BLOCK_RECORD
  5
155
100
AcDbSymbolTableRecord
100
AcDbBlockTableRecord
  2
KGP-03BSV
  0
BLOCK_RECORD
  5
156
100
AcDbSymbolTableRecord
100
AcDbBlockTableRecord
  2
下枠_KE1032
  0
BLOCK_RECORD
  5
157
100
AcDbSymbolTableRecord
100
AcDbBlockTableRecord
  2
はかま_KE1029
  0
BLOCK_RECORD
  5
158
100
AcDbSymbolTableRecord
100
AcDbBlockTableRecord
  2
戸車_XR1987_SV
  0
BLOCK_RECORD
  5
159
100
AcDbSymbolTableRecord
100
AcDbBlockTableRecord
  2
柱キャップ_横
  0
BLOCK_RECORD
  5
15A
100
AcDbSymbolTableRecord
100
AcDbBlockTableRecord
  2
上枠_ZE8750
  0
BLOCK_RECORD
  5
15B
100
AcDbSymbolTableRecord
100
AcDbBlockTableRecord
  2
柱キャップ_正
  0
BLOCK_RECORD
  5
15C
100
AcDbSymbolTableRecord
100
AcDbBlockTableRecord
  2
プッシュ錠PV
  0
BLOCK_RECORD
  5
15D
100
AcDbSymbolTableRecord
100
AcDbBlockTableRecord
  2
XR1156_SV_AM0
  0
BLOCK_RECORD
  5
15E
100
AcDbSymbolTableRecord
100
AcDbBlockTableRecord
  2
基礎_600□650正
  0
BLOCK_RECORD
  5
15F
100
AcDbSymbolTableRecord
100
AcDbBlockTableRecord
  2
基礎_600□650横
  0
BLOCK_RECORD
  5
160
100
AcDbSymbolTableRecord
100
AcDbBlockTableRecord
  2
押縁B_PV
  0
ENDTAB
  0
ENDSEC
  0
SECTION
  2
BLOCKS
  0
BLOCK
  5
162
100
AcDbEntity
  8
0
100
AcDbBlockBegin
2
*MODEL_SPACE
 70
     0
 10
0.0
 20
0.0
 30
0.0
  3
*MODEL_SPACE
  1

  0
ENDBLK
  5
163
100
AcDbEntity
  8
0
100
AcDbBlockEnd
  0
BLOCK
  5
164
100
AcDbEntity
 67
     1
  8
0
100
AcDbBlockBegin
  2
*PAPER_SPACE
 70
     0
 10
0.0
 20
0.0
 30
0.0
  3
*PAPER_SPACE
  1

  0
ENDBLK
  5
165
100
AcDbEntity
 67
     1
  8
0
100
AcDbBlockEnd
  0
BLOCK
  5
166
100
AcDbEntity
  8
0
100
AcDbBlockBegin
  2
GENAXEH
 70
    0
 10
0
 20
0
 30
0.0
  3
GENAXEH
  1

  0
LINE
  5
167
100
AcDbEntity
  8
0
100
AcDbLine
  6
BYLAYER
 10
-1
 20
0
 11
1
 21
0
  0
ENDBLK
  5
168
100
AcDbEntity
  8
0
 67
     1
100
AcDbBlockEnd
  0
BLOCK
  5
169
100
AcDbEntity
  8
0
100
AcDbBlockBegin
  2
_OPEN
 70
    0
 10
0
 20
0
 30
0.0
  3
_OPEN
  1

  0
LINE
  5
16A
100
AcDbEntity
  8
0
100
AcDbLine
  6
BYBLOCK
 62
0
370
  -2
 10
-1
 20
0.166666666666667
 11
0
 21
0
  0
LINE
  5
16B
100
AcDbEntity
  8
0
100
AcDbLine
  6
BYBLOCK
 62
0
370
  -2
 10
-1
 20
-0.166666666666667
 11
0
 21
0
  0
LINE
  5
16C
100
AcDbEntity
  8
0
100
AcDbLine
  6
BYBLOCK
 62
0
370
  -2
 10
0
 20
0
 11
-1
 21
0
  0
ENDBLK
  5
16D
100
AcDbEntity
  8
0
 67
     1
100
AcDbBlockEnd
  0
BLOCK
  5
16E
100
AcDbEntity
  8
0
100
AcDbBlockBegin
  2
プッシュロック
 70
    0
 10
0
 20
0
 30
0.0
  3
プッシュロック
  1

  0
LINE
  5
16F
100
AcDbEntity
  8
AM_0
100
AcDbLine
  6
BYLAYER
 10
-29.5
 20
-7.80000000000007
 11
-25.8
 21
-7.80000000000007
  0
LINE
  5
170
100
AcDbEntity
  8
AM_0
100
AcDbLine
  6
BYLAYER
 10
-29.5
 20
7.79999999999995
 11
-25.8
 21
7.79999999999995
  0
LINE
  5
171
100
AcDbEntity
  8
AM_0
100
AcDbLine
  6
BYLAYER
 10
-29.5
 20
-7.80000000000007
 11
-29.5
 21
7.79999999999995
  0
LINE
  5
172
100
AcDbEntity
  8
AM_0
100
AcDbLine
  6
BYLAYER
 10
-4.00001998533085
 20
-9.09999999999991
 11
-25.8
 21
-9.10000000000002
  0
LINE
  5
173
100
AcDbEntity
  8
AM_0
100
AcDbLine
  6
BYLAYER
 10
-25.8
 20
9.10000000000002
 11
-25.8
 21
-9.10000000000002
  0
LINE
  5
174
100
AcDbEntity
  8
AM_0
100
AcDbLine
  6
BYLAYER
 10
-4.00001998533082
 20
9.10000000000002
 11
-25.8
 21
9.10000000000002
  0
ENDBLK
  5
175
100
AcDbEntity
  8
0
 67
     1
100
AcDbBlockEnd
  0
BLOCK
  5
176
100
AcDbEntity
  8
0
100
AcDbBlockBegin
  2
引き手_TP1227_PV
 70
    0
 10
0
 20
0
 30
0.0
  3
引き手_TP1227_PV
  1

  0
LINE
  5
177
100
AcDbEntity
  8
CONT_S_4
100
AcDbLine
  6
BYLAYER
 10
11
 20
-0.799999999999983
 11
18.5
 21
-0.799999999999983
  0
LINE
  5
178
100
AcDbEntity
  8
CONT_S_4
100
AcDbLine
  6
BYLAYER
 10
9.00000000000001
 20
-7.19999999999996
 11
-8.99999999999998
 21
-7.19999999999996
  0
LINE
  5
179
100
AcDbEntity
  8
CONT_S_4
100
AcDbLine
  6
BYLAYER
 10
-18
 20
2.84E-14
 11
18
 21
-1.42E-14
  0
LINE
  5
17A
100
AcDbEntity
  8
CONT_S_4
100
AcDbLine
  6
BYLAYER
 10
-8.79999999999999
 20
-5.99999999999997
 11
8.80000000000002
 21
-5.99999999999994
  0
ARC
  5
17B
100
AcDbEntity
  8
CONT_S_4
100
AcDbCircle
  6
BYLAYER
 10
-18
 20
-0.5
 40
0.499999999999999
100
AcDbArc
 50
90
 51
180
  0
ARC
  5
17C
100
AcDbEntity
  8
CONT_S_4
100
AcDbCircle
  6
BYLAYER
 10
-10.7999999999999
 20
-0.999999999999971
 40
0.999999999999999
100
AcDbArc
 50
0
 51
90
  0
LINE
  5
17D
100
AcDbEntity
  8
CONT_S_4
100
AcDbLine
  6
BYLAYER
 10
-10.9999999999999
 20
-0.799999999999983
 11
-18.4999999999999
 21
-0.799999999999983
  0
LINE
  5
17E
100
AcDbEntity
  8
CONT_S_4
100
AcDbLine
  6
BYLAYER
 10
-18.4999999999999
 20
-0.799999999999983
 11
-18.4999999999999
 21
-0.5
  0
ARC
  5
17F
100
AcDbEntity
  8
CONT_S_4
100
AcDbCircle
  6
BYLAYER
 10
-8.79999999999999
 20
-5
 40
0.999999999999999
100
AcDbArc
 50
180
 51
270
  0
ARC
  5
180
100
AcDbEntity
  8
CONT_S_4
100
AcDbCircle
  6
BYLAYER
 10
-8.99999999999998
 20
-5.19999999999999
 40
2
100
AcDbArc
 50
180
 51
270
  0
LINE
  5
181
100
AcDbEntity
  8
CONT_S_4
100
AcDbLine
  6
BYLAYER
 10
-9.79999999999997
 20
-0.999999999999971
 11
-9.79999999999997
 21
-5
  0
LINE
  5
182
100
AcDbEntity
  8
CONT_S_4
100
AcDbLine
  6
BYLAYER
 10
-10.9999999999999
 20
-5.19999999999999
 11
-10.9999999999999
 21
-0.799999999999983
  0
ARC
  5
183
100
AcDbEntity
  8
CONT_S_4
100
AcDbCircle
  6
BYLAYER
 10
10.8
 20
-0.999999999999971
 40
0.999999999999999
100
AcDbArc
 50
90
 51
180
  0
ARC
  5
184
100
AcDbEntity
  8
CONT_S_4
100
AcDbCircle
  6
BYLAYER
 10
9.00000000000001
 20
-5.19999999999999
 40
2
100
AcDbArc
 50
270
 51
0
  0
ARC
  5
185
100
AcDbEntity
  8
CONT_S_4
100
AcDbCircle
  6
BYLAYER
 10
8.80000000000002
 20
-5
 40
0.999999999999999
100
AcDbArc
 50
270
 51
0
  0
LINE
  5
186
100
AcDbEntity
  8
CONT_S_4
100
AcDbLine
  6
BYLAYER
 10
9.80000000000007
 20
-5
 11
9.80000000000007
 21
-0.999999999999971
  0
LINE
  5
187
100
AcDbEntity
  8
CONT_S_4
100
AcDbLine
  6
BYLAYER
 10
11
 20
-0.799999999999983
 11
11
 21
-5.19999999999999
  0
ARC
  5
188
100
AcDbEntity
  8
CONT_S_4
100
AcDbCircle
  6
BYLAYER
 10
18
 20
-0.5
 40
0.499999999999999
100
AcDbArc
 50
0
 51
90
  0
LINE
  5
189
100
AcDbEntity
  8
CONT_S_4
100
AcDbLine
  6
BYLAYER
 10
18.5
 20
-0.5
 11
18.5
 21
-0.799999999999983
  0
ENDBLK
  5
18A
100
AcDbEntity
  8
0
 67
     1
100
AcDbBlockEnd
  0
BLOCK
  5
18B
100
AcDbEntity
  8
0
100
AcDbBlockBegin
  2
戸当り_PV
 70
    0
 10
0
 20
0
 30
0.0
  3
戸当り_PV
  1

  0
LINE
  5
18C
100
AcDbEntity
  8
AM_0
100
AcDbLine
  6
BYLAYER
 10
3.6E-15
 20
2.5
 11
3.6E-15
 21
6.25
  0
LINE
  5
18D
100
AcDbEntity
  8
AM_0
100
AcDbLine
  6
BYLAYER
 10
5
 20
7.25000000000001
 11
5
 21
9.25
  0
LINE
  5
18E
100
AcDbEntity
  8
AM_0
100
AcDbLine
  6
BYLAYER
 10
3.5
 20
8.75
 11
3.5
 21
7.25000000000001
  0
LINE
  5
18F
100
AcDbEntity
  8
AM_0
100
AcDbLine
  6
BYLAYER
 10
2
 20
2.5
 11
2
 21
3.75
  0
LINE
  5
190
100
AcDbEntity
  8
AM_0
100
AcDbLine
  6
BYLAYER
 10
4.00000000000006
 20
6.75
 11
4.5
 21
6.75
  0
LINE
  5
191
100
AcDbEntity
  8
AM_0
100
AcDbLine
  6
BYLAYER
 10
2.50000000000006
 20
4.25000000000001
 11
5.65220633418591
 21
4.25000000000001
  0
ARC
  5
192
100
AcDbEntity
  8
AM_0
100
AcDbCircle
  6
BYLAYER
 10
3
 20
8.75
 40
0.5
100
AcDbArc
 50
0
 51
137.161736898152
  0
LINE
  5
193
100
AcDbEntity
  8
AM_0
100
AcDbLine
  6
BYLAYER
 10
3.6E-15
 20
6.25
 11
2.63336202080268
 21
9.08996557503679
  0
ARC
  5
194
100
AcDbEntity
  8
AM_0
100
AcDbCircle
  6
BYLAYER
 10
0.999999999999886
 20
2.5
 40
1.00000000000011
100
AcDbArc
 50
180
 51
0
  0
ARC
  5
195
100
AcDbEntity
  8
AM_0
100
AcDbCircle
  6
BYLAYER
 10
6
 20
9.25
 40
0.999999999999999
100
AcDbArc
 50
24.4009374547679
 51
180
  0
ARC
  5
196
100
AcDbEntity
  8
AM_0
100
AcDbCircle
  6
BYLAYER
 10
2.50000000000006
 20
3.75
 40
0.5
100
AcDbArc
 50
90
 51
180
  0
ARC
  5
197
100
AcDbEntity
  8
AM_0
100
AcDbCircle
  6
BYLAYER
 10
4.00000000000006
 20
7.25000000000001
 40
0.5
100
AcDbArc
 50
180
 51
270
  0
ARC
  5
198
100
AcDbEntity
  8
AM_0
100
AcDbCircle
  6
BYLAYER
 10
4.5
 20
7.25000000000001
 40
0.5
100
AcDbArc
 50
270
 51
0
  0
LINE
  5
199
100
AcDbEntity
  8
AM_0
100
AcDbLine
  6
BYLAYER
 10
2.50000000000006
 20
-4.25
 11
5.65220633418591
 21
-4.25
  0
LINE
  5
19A
100
AcDbEntity
  8
AM_0
100
AcDbLine
  6
BYLAYER
 10
4.00000000000006
 20
-6.75
 11
4.5
 21
-6.75
  0
ARC
  5
19B
100
AcDbEntity
  8
AM_0
100
AcDbCircle
  6
BYLAYER
 10
4.00000000000006
 20
-7.25
 40
0.5
100
AcDbArc
 50
90
 51
180
  0
LINE
  5
19C
100
AcDbEntity
  8
AM_0
100
AcDbLine
  6
BYLAYER
 10
2
 20
-2.49999999999998
 11
2
 21
-3.75
  0
ARC
  5
19D
100
AcDbEntity
  8
AM_0
100
AcDbCircle
  6
BYLAYER
 10
2.50000000000006
 20
-3.75
 40
0.5
100
AcDbArc
 50
180
 51
270
  0
LINE
  5
19E
100
AcDbEntity
  8
AM_0
100
AcDbLine
  6
BYLAYER
 10
3.5
 20
-8.75
 11
3.5
 21
-7.25
  0
LINE
  5
19F
100
AcDbEntity
  8
AM_0
100
AcDbLine
  6
BYLAYER
 10
5
 20
-7.25
 11
5
 21
-9.24999999999999
  0
ARC
  5
1A0
100
AcDbEntity
  8
AM_0
100
AcDbCircle
  6
BYLAYER
 10
4.5
 20
-7.25
 40
0.5
100
AcDbArc
 50
0
 51
90
  0
LINE
  5
1A1
100
AcDbEntity
  8
AM_0
100
AcDbLine
  6
BYLAYER
 10
3.6E-15
 20
-2.49999999999998
 11
3.6E-15
 21
-6.24999999999998
  0
ARC
  5
1A2
100
AcDbEntity
  8
AM_0
100
AcDbCircle
  6
BYLAYER
 10
3
 20
-8.75
 40
0.5
100
AcDbArc
 50
222.838263101848
 51
0
  0
LINE
  5
1A3
100
AcDbEntity
  8
AM_0
100
AcDbLine
  6
BYLAYER
 10
3.6E-15
 20
-6.24999999999998
 11
2.63336202080268
 21
-9.08996557503677
  0
ARC
  5
1A4
100
AcDbEntity
  8
AM_0
100
AcDbCircle
  6
BYLAYER
 10
0.999999999999886
 20
-2.49999999999998
 40
1.00000000000011
100
AcDbArc
 50
0
 51
180
  0
ARC
  5
1A5
100
AcDbEntity
  8
AM_0
100
AcDbCircle
  6
BYLAYER
 10
6
 20
-9.24999999999999
 40
0.999999999999999
100
AcDbArc
 50
180
 51
335.599062545232
  0
ARC
  5
1A6
100
AcDbEntity
  8
AM_0
100
AcDbCircle
  6
BYLAYER
 10
-14.390625
 20
0
 40
23.390625
100
AcDbArc
 50
335.599062545232
 51
24.4009374547679
  0
ARC
  5
1A7
100
AcDbEntity
  8
AM_0
100
AcDbCircle
  6
BYLAYER
 10
-14.390625
 20
0
 40
20.890625
100
AcDbArc
 50
349.402524237873
 51
10.5974757621272
  0
ARC
  5
1A8
100
AcDbEntity
  8
AM_0
100
AcDbCircle
  6
BYLAYER
 10
5.65220633418591
 20
3.75
 40
0.5
100
AcDbArc
 50
10.5974757621437
 51
90
  0
ARC
  5
1A9
100
AcDbEntity
  8
AM_0
100
AcDbCircle
  6
BYLAYER
 10
5.65220633418591
 20
-3.75
 40
0.5
100
AcDbArc
 50
270
 51
349.402524237856
  0
ENDBLK
  5
1AA
100
AcDbEntity
  8
0
 67
     1
100
AcDbBlockEnd
  0
BLOCK
  5
1AB
100
AcDbEntity
  8
0
100
AcDbBlockBegin
  2
先付けビ_ドA_TP1330_
 70
    0
 10
0
 20
0
 30
0.0
  3
先付けビ_ドA_TP1330_
  1

  0
LINE
  5
1AC
100
AcDbEntity
  8
CONT_S_4
100
AcDbLine
  6
BYLAYER
 10
-2.59999999999997
 20
-2.49E-14
 11
2.59999999999994
 21
-2.49E-14
  0
ARC
  5
1AD
100
AcDbEntity
  8
CONT_S_4
100
AcDbCircle
  6
BYLAYER
 10
-2.59999999999997
 20
0.999999999999979
 40
0.2
100
AcDbArc
 50
90
 51
180
  0
LINE
  5
1AE
100
AcDbEntity
  8
CONT_S_4
100
AcDbLine
  6
BYLAYER
 10
-1.30000000000013
 20
1.19999999999999
 11
-1.30000000000013
 21
2.6
  0
LINE
  5
1AF
100
AcDbEntity
  8
CONT_S_4
100
AcDbLine
  6
BYLAYER
 10
-2.59999999999997
 20
1.19999999999999
 11
-1.30000000000013
 21
1.19999999999999
  0
ARC
  5
1B0
100
AcDbEntity
  8
CONT_S_4
100
AcDbCircle
  6
BYLAYER
 10
-2.59999999999997
 20
0.199999999999964
 40
0.2
100
AcDbArc
 50
180
 51
270
  0
LINE
  5
1B1
100
AcDbEntity
  8
CONT_S_4
100
AcDbLine
  6
BYLAYER
 10
-2.80000000000013
 20
0.999999999999979
 11
-2.80000000000013
 21
0.199999999999964
  0
LINE
  5
1B2
100
AcDbEntity
  8
CONT_S_4
100
AcDbLine
  6
BYLAYER
 10
-4.20000000000004
 20
2.79999999999999
 11
-4.19999999999996
 21
3.60000000000079
  0
LINE
  5
1B3
100
AcDbEntity
  8
CONT_S_4
100
AcDbLine
  6
BYLAYER
 10
-4.00000000000006
 20
2.59999999999997
 11
-1.30000000000013
 21
2.6
  0
ARC
  5
1B4
100
AcDbEntity
  8
CONT_S_4
100
AcDbCircle
  6
BYLAYER
 10
-4.00000000000006
 20
2.79999999999999
 40
0.2
100
AcDbArc
 50
180
 51
270
  0
ARC
  5
1B5
100
AcDbEntity
  8
CONT_S_4
100
AcDbCircle
  6
BYLAYER
 10
2.59999999999994
 20
0.999999999999979
 40
0.2
100
AcDbArc
 50
0
 51
90
  0
LINE
  5
1B6
100
AcDbEntity
  8
CONT_S_4
100
AcDbLine
  6
BYLAYER
 10
1.29999999999998
 20
1.19999999999999
 11
1.29999999999998
 21
2.6
  0
LINE
  5
1B7
100
AcDbEntity
  8
CONT_S_4
100
AcDbLine
  6
BYLAYER
 10
1.29999999999998
 20
1.19999999999999
 11
2.59999999999994
 21
1.19999999999999
  0
ARC
  5
1B8
100
AcDbEntity
  8
CONT_S_4
100
AcDbCircle
  6
BYLAYER
 10
2.59999999999994
 20
0.199999999999964
 40
0.2
100
AcDbArc
 50
270
 51
0
  0
LINE
  5
1B9
100
AcDbEntity
  8
CONT_S_4
100
AcDbLine
  6
BYLAYER
 10
2.79999999999998
 20
0.999999999999979
 11
2.79999999999998
 21
0.199999999999964
  0
LINE
  5
1BA
100
AcDbEntity
  8
CONT_S_4
100
AcDbLine
  6
BYLAYER
 10
3.09999999999996
 20
3.60000000000079
 11
3.09999999999996
 21
2.79999999999999
  0
LINE
  5
1BB
100
AcDbEntity
  8
CONT_S_4
100
AcDbLine
  6
BYLAYER
 10
1.29999999999998
 20
2.6
 11
2.9
 21
2.6
  0
ARC
  5
1BC
100
AcDbEntity
  8
CONT_S_4
100
AcDbCircle
  6
BYLAYER
 10
2.9
 20
2.79999999999999
 40
0.2
100
AcDbArc
 50
270
 51
0
  0
ENDBLK
  5
1BD
100
AcDbEntity
  8
0
 67
     1
100
AcDbBlockEnd
  0
BLOCK
  5
1BE
100
AcDbEntity
  8
0
100
AcDbBlockBegin
  2
3型_たて枠案
 70
    0
 10
0
 20
0
 30
0.0
  3
3型_たて枠案
  1

  0
LINE
  5
1BF
100
AcDbEntity
  8
AM_0
100
AcDbLine
  6
BYLAYER
 10
-4.5
 20
44
 11
-4.5
 21
42
  0
LINE
  5
1C0
100
AcDbEntity
  8
AM_0
100
AcDbLine
  6
BYLAYER
 10
-19
 20
-21.5
 11
-20
 21
-20.5
  0
LINE
  5
1C1
100
AcDbEntity
  8
AM_0
100
AcDbLine
  6
BYLAYER
 10
0
 20
-45.5
 11
0
 21
-32.7082575694958
  0
LINE
  5
1C2
100
AcDbEntity
  8
AM_0
100
AcDbLine
  6
BYLAYER
 10
0
 20
-31.7917424305047
 11
0
 21
45.5
  0
LINE
  5
1C3
100
AcDbEntity
  8
AM_0
100
AcDbLine
  6
BYLAYER
 10
-1.5
 20
43
 11
-1.5
 21
-19
  0
LINE
  5
1C4
100
AcDbEntity
  8
AM_0
100
AcDbLine
  6
BYLAYER
 10
-18.5
 20
-5.99999999999997
 11
-18.5
 21
17
  0
LINE
  5
1C5
100
AcDbEntity
  8
AM_0
100
AcDbLine
  6
BYLAYER
 10
-20
 20
0.458257569495821
 11
-20
 21
21.0417424305042
  0
LINE
  5
1C6
100
AcDbEntity
  8
AM_0
100
AcDbLine
  6
BYLAYER
 10
-19
 20
-43
 11
-7.5
 21
-43
  0
LINE
  5
1C7
100
AcDbEntity
  8
AM_0
100
AcDbLine
  6
BYLAYER
 10
-17.5
 20
-20
 11
-2.5
 21
-20
  0
LINE
  5
1C8
100
AcDbEntity
  8
AM_0
100
AcDbLine
  6
BYLAYER
 10
-19
 20
-21.5
 11
-7.5
 21
-21.5
  0
LINE
  5
1C9
100
AcDbEntity
  8
AM_0
100
AcDbLine
  6
BYLAYER
 10
-20
 20
-43.9999999999999
 11
-20
 21
-44.6999999999998
  0
LINE
  5
1CA
100
AcDbEntity
  8
AM_0
100
AcDbLine
  6
BYLAYER
 10
-20
 20
-44.6999999999998
 11
-20.5
 21
-44.6999999999998
  0
LINE
  5
1CB
100
AcDbEntity
  8
AM_0
100
AcDbLine
  6
BYLAYER
 10
-20.5
 20
-44.6999999999998
 11
-20.5
 21
-45.5
  0
LINE
  5
1CC
100
AcDbEntity
  8
AM_0
100
AcDbLine
  6
BYLAYER
 10
-20
 20
-43.9999999999999
 11
-19
 21
-43
  0
LINE
  5
1CD
100
AcDbEntity
  8
AM_0
100
AcDbLine
  6
BYLAYER
 10
-20
 20
-20.5
 11
-20
 21
-9.95825756949534
  0
LINE
  5
1CE
100
AcDbEntity
  8
AM_0
100
AcDbLine
  6
BYLAYER
 10
-17.5
 20
-13
 11
-17.5
 21
-5.99999999999997
  0
ARC
  5
1CF
100
AcDbEntity
  8
AM_0
100
AcDbCircle
  6
BYLAYER
 10
-17.5
 20
-19
 40
0.999999999999999
100
AcDbArc
 50
180
 51
270
  0
LINE
  5
1D0
100
AcDbEntity
  8
AM_0
100
AcDbLine
  6
BYLAYER
 10
-18.5
 20
-14
 11
-17.5
 21
-13
  0
LINE
  5
1D1
100
AcDbEntity
  8
AM_0
100
AcDbLine
  6
BYLAYER
 10
-18.5
 20
-19
 11
-18.5
 21
-14
  0
LINE
  5
1D2
100
AcDbEntity
  8
AM_0
100
AcDbLine
  6
BYLAYER
 10
-20
 20
-9.0417424305042
 11
-20
 21
-0.458257569495323
  0
ARC
  5
1D3
100
AcDbEntity
  8
AM_0
100
AcDbCircle
  6
BYLAYER
 10
-20.1999999999998
 20
-9.49999999999999
 40
0.5
100
AcDbArc
 50
293.578178478179
 51
66.4218215218209
  0
LINE
  5
1D4
100
AcDbEntity
  8
AM_0
100
AcDbLine
  6
BYLAYER
 10
-18.5
 20
-5.99999999999997
 11
-17.5
 21
-5.99999999999997
  0
ARC
  5
1D5
100
AcDbEntity
  8
AM_0
100
AcDbCircle
  6
BYLAYER
 10
-20.1999999999998
 20
2.13E-14
 40
0.5
100
AcDbArc
 50
293.578178478179
 51
66.4218215218209
  0
LINE
  5
1D6
100
AcDbEntity
  8
AM_0
100
AcDbLine
  6
BYLAYER
 10
-2.5
 20
-21.5
 11
-2.5
 21
-23
  0
LINE
  5
1D7
100
AcDbEntity
  8
AM_0
100
AcDbLine
  6
BYLAYER
 10
-2.5
 20
-28.75
 11
-2.5
 21
-35.75
  0
LINE
  5
1D8
100
AcDbEntity
  8
AM_0
100
AcDbLine
  6
BYLAYER
 10
-2.5
 20
-41.5
 11
-2.5
 21
-43
  0
LINE
  5
1D9
100
AcDbEntity
  8
AM_0
100
AcDbLine
  6
BYLAYER
 10
-6.39999999999964
 20
-42.2000000000002
 11
-6.39999999999964
 21
-40
  0
LINE
  5
1DA
100
AcDbEntity
  8
AM_0
100
AcDbLine
  6
BYLAYER
 10
-7.5
 20
-43
 11
-7.5
 21
-40
  0
LINE
  5
1DB
100
AcDbEntity
  8
AM_0
100
AcDbLine
  6
BYLAYER
 10
-6.80000000000018
 20
-43
 11
-2.5
 21
-43
  0
ARC
  5
1DC
100
AcDbEntity
  8
AM_0
100
AcDbCircle
  6
BYLAYER
 10
-5.80000000000018
 20
-43
 40
0.999999999999999
100
AcDbArc
 50
126.869897645861
 51
180
  0
LINE
  5
1DD
100
AcDbEntity
  8
AM_0
100
AcDbLine
  6
BYLAYER
 10
-20.5
 20
-45.5
 11
0
 21
-45.5
  0
LINE
  5
1DE
100
AcDbEntity
  8
AM_0
100
AcDbLine
  6
BYLAYER
 10
-7.5
 20
-40
 11
-6.39999999999964
 21
-40
  0
ARC
  5
1DF
100
AcDbEntity
  8
AM_0
100
AcDbCircle
  6
BYLAYER
 10
0.199999999999818
 20
-32.25
 40
0.5
100
AcDbArc
 50
113.578178478297
 51
246.421821521703
  0
LINE
  5
1E0
100
AcDbEntity
  8
AM_0
100
AcDbLine
  6
BYLAYER
 10
-6.80000000000018
 20
-21.5
 11
-2.5
 21
-21.5
  0
LINE
  5
1E1
100
AcDbEntity
  8
AM_0
100
AcDbLine
  6
BYLAYER
 10
-7.5
 20
-21.5
 11
-7.5
 21
-24.5
  0
LINE
  5
1E2
100
AcDbEntity
  8
AM_0
100
AcDbLine
  6
BYLAYER
 10
-6.39999999999964
 20
-22.3000000000001
 11
-6.39999999999964
 21
-24.5
  0
LINE
  5
1E3
100
AcDbEntity
  8
AM_0
100
AcDbLine
  6
BYLAYER
 10
-7.5
 20
-24.5
 11
-6.39999999999964
 21
-24.5
  0
ARC
  5
1E4
100
AcDbEntity
  8
AM_0
100
AcDbCircle
  6
BYLAYER
 10
-5.80000000000018
 20
-21.5
 40
0.999999999999999
100
AcDbArc
 50
180
 51
233.130102354139
  0
ARC
  5
1E5
100
AcDbEntity
  8
AM_0
100
AcDbCircle
  6
BYLAYER
 10
-2.5
 20
-19
 40
0.999999999999999
100
AcDbArc
 50
270
 51
0
  0
LINE
  5
1E6
100
AcDbEntity
  8
AM_0
100
AcDbLine
  6
BYLAYER
 10
-9.5
 20
41.5
 11
-18.5
 21
41.5
  0
LINE
  5
1E7
100
AcDbEntity
  8
AM_0
100
AcDbLine
  6
BYLAYER
 10
-6
 20
44
 11
-14.0417424305042
 21
44
  0
ARC
  5
1E8
100
AcDbEntity
  8
AM_0
100
AcDbCircle
  6
BYLAYER
 10
-21
 20
29.3000000000002
 40
0.999999999999999
100
AcDbArc
 50
0
 51
90
  0
LINE
  5
1E9
100
AcDbEntity
  8
AM_0
100
AcDbLine
  6
BYLAYER
 10
-18.5
 20
26
 11
-18.5
 21
41.5
  0
LINE
  5
1EA
100
AcDbEntity
  8
AM_0
100
AcDbLine
  6
BYLAYER
 10
-17.5
 20
25
 11
-17.5
 21
18
  0
LINE
  5
1EB
100
AcDbEntity
  8
AM_0
100
AcDbLine
  6
BYLAYER
 10
-17.5
 20
18
 11
-18.5
 21
17
  0
ARC
  5
1EC
100
AcDbEntity
  8
AM_0
100
AcDbCircle
  6
BYLAYER
 10
-20.1999999999998
 20
21.5
 40
0.5
100
AcDbArc
 50
293.578178478179
 51
66.4218215218209
  0
LINE
  5
1ED
100
AcDbEntity
  8
AM_0
100
AcDbLine
  6
BYLAYER
 10
-18.5
 20
26
 11
-17.5
 21
25
  0
LINE
  5
1EE
100
AcDbEntity
  8
AM_0
100
AcDbLine
  6
BYLAYER
 10
-20
 20
21.9582575694958
 11
-20
 21
29.3000000000002
  0
LINE
  5
1EF
100
AcDbEntity
  8
AM_0
100
AcDbLine
  6
BYLAYER
 10
-31
 20
30.3000000000002
 11
-21
 21
30.3000000000002
  0
LINE
  5
1F0
100
AcDbEntity
  8
AM_0
100
AcDbLine
  6
BYLAYER
 10
-30.8000000000002
 20
31.8000000000002
 11
-24.8000000000002
 21
31.8000000000002
  0
ARC
  5
1F1
100
AcDbEntity
  8
AM_0
100
AcDbCircle
  6
BYLAYER
 10
-31
 20
31.2999999999997
 40
0.999999999999999
100
AcDbArc
 50
180
 51
270
  0
LINE
  5
1F2
100
AcDbEntity
  8
AM_0
100
AcDbLine
  6
BYLAYER
 10
-29.3000000000002
 20
33.3000000000002
 11
-29.3000000000002
 21
34
  0
LINE
  5
1F3
100
AcDbEntity
  8
AM_0
100
AcDbLine
  6
BYLAYER
 10
-30.8000000000002
 20
33.3000000000002
 11
-29.3000000000002
 21
33.3000000000002
  0
ARC
  5
1F4
100
AcDbEntity
  8
AM_0
100
AcDbCircle
  6
BYLAYER
 10
-31.5
 20
33.9999999999996
 40
0.5
100
AcDbArc
 50
90
 51
180
  0
ARC
  5
1F5
100
AcDbEntity
  8
AM_0
100
AcDbCircle
  6
BYLAYER
 10
-29.8000000000002
 20
33.9999999999996
 40
0.5
100
AcDbArc
 50
0
 51
90
  0
LINE
  5
1F6
100
AcDbEntity
  8
AM_0
100
AcDbLine
  6
BYLAYER
 10
-31.5
 20
34.5
 11
-29.8000000000002
 21
34.5
  0
LINE
  5
1F7
100
AcDbEntity
  8
AM_0
100
AcDbLine
  6
BYLAYER
 10
-31.9999999999999
 20
31.3000000000002
 11
-31.9999999999999
 21
34
  0
LINE
  5
1F8
100
AcDbEntity
  8
AM_0
100
AcDbLine
  6
BYLAYER
 10
-30.8000000000002
 20
31.8000000000002
 11
-30.8000000000002
 21
33.3000000000002
  0
LINE
  5
1F9
100
AcDbEntity
  8
AM_0
100
AcDbLine
  6
BYLAYER
 10
-20
 20
31.8000000000002
 11
-20
 21
42.4641016151377
  0
LINE
  5
1FA
100
AcDbEntity
  8
AM_0
100
AcDbLine
  6
BYLAYER
 10
-20
 20
31.8000000000002
 11
-23.6000000000004
 21
31.8000000000002
  0
LINE
  5
1FB
100
AcDbEntity
  8
AM_0
100
AcDbLine
  6
BYLAYER
 10
-26.3000000000002
 20
33.3000000000002
 11
-26.3000000000002
 21
34
  0
LINE
  5
1FC
100
AcDbEntity
  8
AM_0
100
AcDbLine
  6
BYLAYER
 10
-24.8000000000002
 20
33.3000000000002
 11
-26.3000000000002
 21
33.3000000000002
  0
ARC
  5
1FD
100
AcDbEntity
  8
AM_0
100
AcDbCircle
  6
BYLAYER
 10
-24.1000000000003
 20
33.9999999999996
 40
0.5
100
AcDbArc
 50
0
 51
90
  0
ARC
  5
1FE
100
AcDbEntity
  8
AM_0
100
AcDbCircle
  6
BYLAYER
 10
-25.8000000000001
 20
33.9999999999996
 40
0.5
100
AcDbArc
 50
90
 51
180
  0
LINE
  5
1FF
100
AcDbEntity
  8
AM_0
100
AcDbLine
  6
BYLAYER
 10
-24.1000000000003
 20
34.5
 11
-25.8000000000001
 21
34.5
  0
LINE
  5
200
100
AcDbEntity
  8
AM_0
100
AcDbLine
  6
BYLAYER
 10
-23.6000000000004
 20
34
 11
-23.6000000000004
 21
31.8000000000002
  0
LINE
  5
201
100
AcDbEntity
  8
AM_0
100
AcDbLine
  6
BYLAYER
 10
-24.8000000000002
 20
33.3000000000002
 11
-24.8000000000002
 21
31.8000000000002
  0
LINE
  5
202
100
AcDbEntity
  8
AM_0
100
AcDbLine
  6
BYLAYER
 10
-14.9582575694958
 20
44
 11
-22
 21
44
  0
LINE
  5
203
100
AcDbEntity
  8
AM_0
100
AcDbLine
  6
BYLAYER
 10
-22
 20
43
 11
-20
 21
42.4641016151377
  0
LINE
  5
204
100
AcDbEntity
  8
AM_0
100
AcDbLine
  6
BYLAYER
 10
-22
 20
43
 11
-22
 21
44
  0
ARC
  5
205
100
AcDbEntity
  8
AM_0
100
AcDbCircle
  6
BYLAYER
 10
-14.5
 20
44.1999999999998
 40
0.5
100
AcDbArc
 50
203.57817847818
 51
336.421821521819
  0
LINE
  5
206
100
AcDbEntity
  8
AM_0
100
AcDbLine
  6
BYLAYER
 10
-6
 20
45.5
 11
0
 21
45.5
  0
LINE
  5
207
100
AcDbEntity
  8
AM_0
100
AcDbLine
  6
BYLAYER
 10
-4.5
 20
42
 11
-9
 21
42
  0
LINE
  5
208
100
AcDbEntity
  8
AM_0
100
AcDbLine
  6
BYLAYER
 10
-6
 20
44
 11
-6
 21
45.5
  0
LINE
  5
209
100
AcDbEntity
  8
AM_0
100
AcDbLine
  6
BYLAYER
 10
-2.5
 20
-28.75
 11
-1.5
 21
-27.75
  0
LINE
  5
20A
100
AcDbEntity
  8
AM_0
100
AcDbLine
  6
BYLAYER
 10
-1.5
 20
-27.75
 11
-1.5
 21
-24
  0
LINE
  5
20B
100
AcDbEntity
  8
AM_0
100
AcDbLine
  6
BYLAYER
 10
-1.5
 20
-24
 11
-2.5
 21
-23
  0
LINE
  5
20C
100
AcDbEntity
  8
AM_0
100
AcDbLine
  6
BYLAYER
 10
-1.5
 20
-40.5
 11
-2.5
 21
-41.5
  0
LINE
  5
20D
100
AcDbEntity
  8
AM_0
100
AcDbLine
  6
BYLAYER
 10
-2.5
 20
-35.75
 11
-1.5
 21
-36.75
  0
LINE
  5
20E
100
AcDbEntity
  8
AM_0
100
AcDbLine
  6
BYLAYER
 10
-1.5
 20
-36.75
 11
-1.5
 21
-40.5
  0
LINE
  5
20F
100
AcDbEntity
  8
AM_0
100
AcDbLine
  6
BYLAYER
 10
-2.5
 20
44
 11
-4.5
 21
44
  0
ARC
  5
210
100
AcDbEntity
  8
AM_0
100
AcDbCircle
  6
BYLAYER
 10
-2.5
 20
43
 40
0.999999999999999
100
AcDbArc
 50
0
 51
90
  0
LINE
  5
211
100
AcDbEntity
  8
AM_0
100
AcDbLine
  6
BYLAYER
 10
-9.5
 20
41.5
 11
-9
 21
42
  0
ENDBLK
  5
212
100
AcDbEntity
  8
0
 67
     1
100
AcDbBlockEnd
  0
BLOCK
  5
213
100
AcDbEntity
  8
0
100
AcDbBlockBegin
  2
XR1952_PV
 70
    0
 10
0
 20
0
 30
0.0
  3
XR1952_PV
  1

  0
LINE
  5
214
100
AcDbEntity
  8
AM_0
100
AcDbLine
  6
BYLAYER
 10
2.75E-14
 20
4.74999999999974
 11
2.75E-14
 21
-4.74999999999982
  0
LINE
  5
215
100
AcDbEntity
  8
AM_0
100
AcDbLine
  6
BYLAYER
 10
1.99999999999994
 20
-4.24999999999983
 11
1.99999999999997
 21
4.24999999999977
  0
ARC
  5
216
100
AcDbEntity
  8
AM_0
100
AcDbCircle
  6
BYLAYER
 10
1.49999999999997
 20
-4.24999999999983
 40
0.5
100
AcDbArc
 50
270
 51
0
  0
LINE
  5
217
100
AcDbEntity
  8
AM_0
100
AcDbLine
  6
BYLAYER
 10
2.75E-14
 20
-4.74999999999982
 11
1.49999999999997
 21
-4.74999999999982
  0
ARC
  5
218
100
AcDbEntity
  8
AM_0
100
AcDbCircle
  6
BYLAYER
 10
1.49999999999997
 20
4.24999999999977
 40
0.5
100
AcDbArc
 50
0
 51
90
  0
LINE
  5
219
100
AcDbEntity
  8
AM_0
100
AcDbLine
  6
BYLAYER
 10
1.49999999999997
 20
4.74999999999974
 11
2.75E-14
 21
4.74999999999974
  0
ENDBLK
  5
21A
100
AcDbEntity
  8
0
 67
     1
100
AcDbBlockEnd
  0
BLOCK
  5
21B
100
AcDbEntity
  8
0
100
AcDbBlockBegin
  2
支柱案01
 70
    0
 10
0
 20
0
 30
0.0
  3
支柱案01
  1

  0
ARC
  5
21C
100
AcDbEntity
  8
AM_0
100
AcDbCircle
  6
BYLAYER
 10
14.574230796461
 20
-1.00000000000042
 40
50
100
AcDbArc
 50
67.6173397157779
 51
90
  0
ARC
  5
21D
100
AcDbEntity
  8
AM_0
100
AcDbCircle
  6
BYLAYER
 10
14.574230796461
 20
-1.00000000000042
 40
47.6
100
AcDbArc
 50
67.6173397158011
 51
80.8931742124047
  0
ARC
  5
21E
100
AcDbEntity
  8
AM_0
100
AcDbCircle
  6
BYLAYER
 10
14.574230796461
 20
0.999999999999581
 40
50
100
AcDbArc
 50
270
 51
292.382660284199
  0
ARC
  5
21F
100
AcDbEntity
  8
AM_0
100
AcDbCircle
  6
BYLAYER
 10
14.574230796461
 20
0.999999999999581
 40
47.6
100
AcDbArc
 50
279.106825787595
 51
292.382660284199
  0
ARC
  5
220
100
AcDbEntity
  8
AM_0
100
AcDbCircle
  6
BYLAYER
 10
-232.999999999999
 20
-4.121E-13
 40
300
100
AcDbArc
 50
356.104820465892
 51
3.89517953410764
  0
ARC
  5
221
100
AcDbEntity
  8
AM_0
100
AcDbCircle
  6
BYLAYER
 10
-232.999999999999
 20
-4.121E-13
 40
297.6
100
AcDbArc
 50
356.104820465892
 51
3.89517953410764
  0
ARC
  5
222
100
AcDbEntity
  8
AM_0
100
AcDbCircle
  6
BYLAYER
 10
-80.6234089017971
 20
232.165329138866
 40
300
100
AcDbArc
 50
292.382660284199
 51
297.339161430569
  0
ARC
  5
223
100
AcDbEntity
  8
AM_0
100
AcDbCircle
  6
BYLAYER
 10
-80.6234089017971
 20
232.165329138866
 40
297.6
100
AcDbArc
 50
292.382660284199
 51
297.339161430569
  0
ARC
  5
224
100
AcDbEntity
  8
AM_0
100
AcDbCircle
  6
BYLAYER
 10
49.3462693307529
 20
-19.2245726872156
 40
17
100
AcDbArc
 50
297.339161430569
 51
356.104820465892
  0
ARC
  5
225
100
AcDbEntity
  8
AM_0
100
AcDbCircle
  6
BYLAYER
 10
49.3462693307529
 20
-19.2245726872156
 40
14.6
100
AcDbArc
 50
297.339161430569
 51
356.104820465892
  0
ARC
  5
226
100
AcDbEntity
  8
AM_0
100
AcDbCircle
  6
BYLAYER
 10
49.3462693307529
 20
19.2245726872152
 40
17
100
AcDbArc
 50
3.89517953410764
 51
62.6608385694308
  0
ARC
  5
227
100
AcDbEntity
  8
AM_0
100
AcDbCircle
  6
BYLAYER
 10
49.3462693307529
 20
19.2245726872152
 40
14.6
100
AcDbArc
 50
3.89517953410764
 51
62.6608385694308
  0
LINE
  5
228
100
AcDbEntity
  8
AM_0
100
AcDbLine
  6
BYLAYER
 10
-21.5
 20
-49.0000000000004
 11
14.574230796461
 21
-49.0000000000004
  0
LINE
  5
229
100
AcDbEntity
  8
AM_0
100
AcDbLine
  6
BYLAYER
 10
-3.50000000000001
 20
48.9999999999996
 11
14.574230796461
 21
48.9999999999996
  0
ARC
  5
22A
100
AcDbEntity
  8
AM_0
100
AcDbCircle
  6
BYLAYER
 10
-0.199999999999825
 20
-4.121E-13
 40
0.5
100
AcDbArc
 50
293.57817847818
 51
66.4218215218196
  0
LINE
  5
22B
100
AcDbEntity
  8
AM_0
100
AcDbLine
  6
BYLAYER
 10
-5.3E-15
 20
-0.458257569495764
 11
9.042E-13
 21
-46.0000000000004
  0
ARC
  5
22C
100
AcDbEntity
  8
AM_0
100
AcDbCircle
  6
BYLAYER
 10
-80.6234089017971
 20
-232.165329138867
 40
300
100
AcDbArc
 50
62.6608385694308
 51
67.6173397157779
  0
ARC
  5
22D
100
AcDbEntity
  8
AM_0
100
AcDbCircle
  6
BYLAYER
 10
-80.6234089017971
 20
-232.165329138867
 40
297.6
100
AcDbArc
 50
62.6608385694308
 51
67.6173397158011
  0
LINE
  5
22E
100
AcDbEntity
  8
AM_0
100
AcDbLine
  6
BYLAYER
 10
9.042E-13
 20
45.9999999999996
 11
-5.3E-15
 21
0.45825756949538
  0
LINE
  5
22F
100
AcDbEntity
  8
AM_0
100
AcDbLine
  6
BYLAYER
 10
-20.0857864376271
 20
-47.0000000000004
 11
-1.00000000000001
 21
-47.0000000000004
  0
ARC
  5
230
100
AcDbEntity
  8
AM_0
100
AcDbCircle
  6
BYLAYER
 10
-1.00000000000001
 20
-46.0000000000004
 40
0.999999999999999
100
AcDbArc
 50
270
 51
0
  0
LINE
  5
231
100
AcDbEntity
  8
AM_0
100
AcDbLine
  6
BYLAYER
 10
2.99999999999999
 20
-46.0000000000004
 11
22.1081540771952
 21
-46.0000000000004
  0
ARC
  5
232
100
AcDbEntity
  8
AM_0
100
AcDbCircle
  6
BYLAYER
 10
2.99999999999999
 20
-45.0000000000004
 40
0.999999999999999
100
AcDbArc
 50
180
 51
270
  0
LINE
  5
233
100
AcDbEntity
  8
AM_0
100
AcDbLine
  6
BYLAYER
 10
2.49999999999999
 20
3.49999999999959
 11
2.49999999999999
 21
-3.50000000000041
  0
LINE
  5
234
100
AcDbEntity
  8
AM_0
100
AcDbLine
  6
BYLAYER
 10
2.49999999999999
 20
3.49999999999959
 11
1.99999999999999
 21
3.99999999999957
  0
LINE
  5
235
100
AcDbEntity
  8
AM_0
100
AcDbLine
  6
BYLAYER
 10
1.99999999999999
 20
-4.00000000000041
 11
2.49999999999999
 21
-3.50000000000041
  0
LINE
  5
236
100
AcDbEntity
  8
AM_0
100
AcDbLine
  6
BYLAYER
 10
1.99999999999999
 20
-4.00000000000041
 11
1.99999999999999
 21
-26.0000000000004
  0
LINE
  5
237
100
AcDbEntity
  8
AM_0
100
AcDbLine
  6
BYLAYER
 10
1.99999999999999
 20
-27.5000000000004
 11
1.99999999999999
 21
-45.0000000000004
  0
LINE
  5
238
100
AcDbEntity
  8
AM_0
100
AcDbLine
  6
BYLAYER
 10
1.99999999999999
 20
44.9999999999995
 11
1.99999999999999
 21
27.4999999999995
  0
LINE
  5
239
100
AcDbEntity
  8
AM_0
100
AcDbLine
  6
BYLAYER
 10
1.99999999999999
 20
25.9999999999995
 11
1.99999999999999
 21
3.99999999999957
  0
LINE
  5
23A
100
AcDbEntity
  8
AM_0
100
AcDbLine
  6
BYLAYER
 10
2.99999999999999
 20
45.9999999999996
 11
22.108154077197
 21
45.9999999999996
  0
ARC
  5
23B
100
AcDbEntity
  8
AM_0
100
AcDbCircle
  6
BYLAYER
 10
2.99999999999999
 20
44.9999999999995
 40
0.999999999999999
100
AcDbArc
 50
90
 51
180
  0
LINE
  5
23C
100
AcDbEntity
  8
AM_0
100
AcDbLine
  6
BYLAYER
 10
-2.08578643762667
 20
46.9999999999995
 11
-0.999999999999096
 21
46.9999999999995
  0
ARC
  5
23D
100
AcDbEntity
  8
AM_0
100
AcDbCircle
  6
BYLAYER
 10
-0.999999999999096
 20
45.9999999999996
 40
0.999999999999999
100
AcDbArc
 50
0
 51
90
  0
LINE
  5
23E
100
AcDbEntity
  8
AM_0
100
AcDbLine
  6
BYLAYER
 10
6.2500000000009
 20
-27.5000000000004
 11
2.00000000000045
 21
-27.5000000000004
  0
LINE
  5
23F
100
AcDbEntity
  8
AM_0
100
AcDbLine
  6
BYLAYER
 10
6.25000000000045
 20
27.4999999999995
 11
2.00000000000045
 21
27.4999999999995
  0
LINE
  5
240
100
AcDbEntity
  8
AM_0
100
AcDbLine
  6
BYLAYER
 10
6.25000000000045
 20
25.9999999999995
 11
2.00000000000045
 21
25.9999999999995
  0
LINE
  5
241
100
AcDbEntity
  8
AM_0
100
AcDbLine
  6
BYLAYER
 10
6.2500000000009
 20
-26.0000000000008
 11
2.00000000000045
 21
-26.0000000000004
  0
ARC
  5
242
100
AcDbEntity
  8
AM_0
100
AcDbCircle
  6
BYLAYER
 10
-3.50000000000001
 20
47.4999999999995
 40
1.5
100
AcDbArc
 50
90
 51
340.528779365502
  0
ARC
  5
243
100
AcDbEntity
  8
AM_0
100
AcDbCircle
  6
BYLAYER
 10
-21.5
 20
-47.5000000000004
 40
1.5
100
AcDbArc
 50
19.471220634498
 51
270
  0
ARC
  5
244
100
AcDbEntity
  8
AM_0
100
AcDbCircle
  6
BYLAYER
 10
6.25000000000045
 20
26.75
 40
0.749999999999595
100
AcDbArc
 50
270
 51
90
  0
ARC
  5
245
100
AcDbEntity
  8
AM_0
100
AcDbCircle
  6
BYLAYER
 10
6.2500000000009
 20
-26.75
 40
0.749999999999267
100
AcDbArc
 50
270
 51
90
  0
ENDBLK
  5
246
100
AcDbEntity
  8
0
 67
     1
100
AcDbBlockEnd
  0
BLOCK
  5
247
100
AcDbEntity
  8
0
100
AcDbBlockBegin
  2
引き手_TP1227__A3_SV
 70
    0
 10
0
 20
0
 30
0.0
  3
引き手_TP1227__A3_SV
  1

  0
LINE
  5
248
100
AcDbEntity
  8
CONT_S_4
100
AcDbLine
  6
BYLAYER
 10
6.1999999999999
 20
-2.20000000000005
 11
6.1999999999999
 21
-13.8000000000001
  0
LINE
  5
249
100
AcDbEntity
  8
CONT_S_4
100
AcDbLine
  6
BYLAYER
 10
-1.00000000000003
 20
0.999999999999886
 11
-1.00000000000003
 21
-19
  0
LINE
  5
24A
100
AcDbEntity
  8
CONT_S_4
100
AcDbLine
  6
BYLAYER
 10
4.99999999999994
 20
-13.8000000000001
 11
4.99999999999994
 21
-2.20000000000005
  0
LINE
  5
24B
100
AcDbEntity
  8
CONT_S_4
100
AcDbLine
  6
BYLAYER
 10
-8.53E-14
 20
-19.5
 11
-8.53E-14
 21
-16
  0
LINE
  5
24C
100
AcDbEntity
  8
CONT_S_4
100
AcDbLine
  6
BYLAYER
 10
-0.5
 20
-19.5
 11
-8.53E-14
 21
-19.5
  0
ARC
  5
24D
100
AcDbEntity
  8
CONT_S_4
100
AcDbCircle
  6
BYLAYER
 10
-0.5
 20
-19
 40
0.5
100
AcDbArc
 50
180
 51
270
  0
LINE
  5
24E
100
AcDbEntity
  8
CONT_S_4
100
AcDbLine
  6
BYLAYER
 10
4
 20
-16
 11
-8.53E-14
 21
-16
  0
LINE
  5
24F
100
AcDbEntity
  8
CONT_S_4
100
AcDbLine
  6
BYLAYER
 10
-8.53E-14
 20
-14.8000000000001
 11
4
 21
-14.8000000000001
  0
ARC
  5
250
100
AcDbEntity
  8
CONT_S_4
100
AcDbCircle
  6
BYLAYER
 10
-8.53E-14
 20
-15.8000000000002
 40
1
100
AcDbArc
 50
90
 51
180
  0
ARC
  5
251
100
AcDbEntity
  8
CONT_S_4
100
AcDbCircle
  6
BYLAYER
 10
4
 20
-13.8000000000001
 40
2.2
100
AcDbArc
 50
270
 51
0
  0
ARC
  5
252
100
AcDbEntity
  8
CONT_S_4
100
AcDbCircle
  6
BYLAYER
 10
4
 20
-13.8000000000001
 40
1
100
AcDbArc
 50
270
 51
0
  0
ARC
  5
253
100
AcDbEntity
  8
CONT_S_4
100
AcDbCircle
  6
BYLAYER
 10
4
 20
-2.20000000000005
 40
2.2
100
AcDbArc
 50
0
 51
90
  0
ARC
  5
254
100
AcDbEntity
  8
CONT_S_4
100
AcDbCircle
  6
BYLAYER
 10
4
 20
-2.20000000000005
 40
1
100
AcDbArc
 50
0
 51
90
  0
LINE
  5
255
100
AcDbEntity
  8
CONT_S_4
100
AcDbLine
  6
BYLAYER
 10
-8.53E-14
 20
0
 11
4
 21
0
  0
LINE
  5
256
100
AcDbEntity
  8
CONT_S_4
100
AcDbLine
  6
BYLAYER
 10
-8.53E-14
 20
-1.20000000000016
 11
4
 21
-1.20000000000016
  0
LINE
  5
257
100
AcDbEntity
  8
CONT_S_4
100
AcDbLine
  6
BYLAYER
 10
-8.53E-14
 20
0
 11
-8.53E-14
 21
1.5
  0
LINE
  5
258
100
AcDbEntity
  8
CONT_S_4
100
AcDbLine
  6
BYLAYER
 10
-8.53E-14
 20
1.5
 11
-0.5
 21
1.5
  0
ARC
  5
259
100
AcDbEntity
  8
CONT_S_4
100
AcDbCircle
  6
BYLAYER
 10
-0.5
 20
0.999999999999886
 40
0.5
100
AcDbArc
 50
90
 51
180
  0
ARC
  5
25A
100
AcDbEntity
  8
CONT_S_4
100
AcDbCircle
  6
BYLAYER
 10
-8.53E-14
 20
-0.200000000000046
 40
1
100
AcDbArc
 50
180
 51
270
  0
ENDBLK
  5
25B
100
AcDbEntity
  8
0
 67
     1
100
AcDbBlockEnd
  0
BLOCK
  5
25C
100
AcDbEntity
  8
0
100
AcDbBlockBegin
  2
KGP-03BSV
 70
    0
 10
0
 20
0
 30
0.0
  3
KGP-03BSV
  1

  0
LINE
  5
25D
100
AcDbEntity
  8
CONT_S_4
100
AcDbLine
  6
BYLAYER
 10
-9.22907733917239
 20
15.3209218978886
 11
-9.78418445587161
 21
1.5000009536742
  0
LINE
  5
25E
100
AcDbEntity
  8
CONT_S_4
100
AcDbLine
  6
BYLAYER
 10
-0.849999427795438
 20
5
 11
0.850001335144043
 21
5
  0
LINE
  5
25F
100
AcDbEntity
  8
CONT_S_4
100
AcDbLine
  6
BYLAYER
 10
8.58321666717524
 20
1.5
 11
9.78418254852289
 21
1.5
  0
LINE
  5
260
100
AcDbEntity
  8
CONT_S_4
100
AcDbLine
  6
BYLAYER
 10
-9.78418445587161
 20
1.5
 11
-8.58321475982666
 21
1.5
  0
LINE
  5
261
100
AcDbEntity
  8
CONT_S_4
100
AcDbLine
  6
BYLAYER
 10
9.22993373870844
 20
15.2995977401733
 11
9.78418254852289
 21
1.5000009536742
  0
LINE
  5
262
100
AcDbEntity
  8
CONT_S_4
100
AcDbLine
  6
BYLAYER
 10
-8.25000095367434
 20
16.3000001907349
 11
-1.84999942779541
 21
16.3000001907349
  0
LINE
  5
263
100
AcDbEntity
  8
CONT_S_4
100
AcDbLine
  6
BYLAYER
 10
0.850001335144043
 20
15.3000001907349
 11
0.850001335144043
 21
0
  0
LINE
  5
264
100
AcDbEntity
  8
CONT_S_4
100
AcDbLine
  6
BYLAYER
 10
-0.849999427795438
 20
15.3000001907349
 11
-0.849999427795438
 21
0
  0
LINE
  5
265
100
AcDbEntity
  8
CONT_S_4
100
AcDbLine
  6
BYLAYER
 10
1.84999942779535
 20
16.3000001907349
 11
8.25000095367432
 21
16.3000001907349
  0
LINE
  5
266
100
AcDbEntity
  8
CONT_S_4
100
AcDbLine
  6
BYLAYER
 10
-1.84999942779541
 20
16.3000001907349
 11
-0.849999427795438
 21
15.3000001907349
  0
LINE
  5
267
100
AcDbEntity
  8
CONT_S_4
100
AcDbLine
  6
BYLAYER
 10
-9.22907733917239
 20
15.3209218978886
 11
-8.25000095367434
 21
16.3000001907349
  0
LINE
  5
268
100
AcDbEntity
  8
CONT_S_4
100
AcDbLine
  6
BYLAYER
 10
0.850001335144043
 20
15.3000001907349
 11
1.84999942779535
 21
16.3000001907349
  0
LINE
  5
269
100
AcDbEntity
  8
CONT_S_4
100
AcDbLine
  6
BYLAYER
 10
-8.08758640289309
 20
13.8401327133179
 11
-8.58321475982666
 21
1.5
  0
LINE
  5
26A
100
AcDbEntity
  8
CONT_S_4
100
AcDbLine
  6
BYLAYER
 10
2.84999942779541
 20
14.8000001907349
 11
7.08839130401611
 21
14.8000001907349
  0
LINE
  5
26B
100
AcDbEntity
  8
CONT_S_4
100
AcDbLine
  6
BYLAYER
 10
8.25000095367432
 20
16.2999982833862
 11
9.24999904632568
 21
15.3000001907349
  0
LINE
  5
26C
100
AcDbEntity
  8
CONT_S_4
100
AcDbLine
  6
BYLAYER
 10
-7.08839130401614
 20
14.8000001907349
 11
-2.84999942779541
 21
14.8000001907349
  0
LINE
  5
26D
100
AcDbEntity
  8
CONT_S_4
100
AcDbLine
  6
BYLAYER
 10
-2.34999942779544
 20
14.6660261154175
 11
-2.34999942779544
 21
0
  0
LINE
  5
26E
100
AcDbEntity
  8
CONT_S_4
100
AcDbLine
  6
BYLAYER
 10
8.08758449554438
 20
13.8401327133179
 11
8.58321475982666
 21
1.5
  0
LINE
  5
26F
100
AcDbEntity
  8
CONT_S_4
100
AcDbLine
  6
BYLAYER
 10
1.84999942779535
 20
13.8000001907349
 11
1.84999942779535
 21
0
  0
LINE
  5
270
100
AcDbEntity
  8
CONT_S_4
100
AcDbLine
  6
BYLAYER
 10
2.34999942779541
 20
14.6660261154175
 11
2.34999942779541
 21
0
  0
LINE
  5
271
100
AcDbEntity
  8
CONT_S_4
100
AcDbLine
  6
BYLAYER
 10
-1.84999942779541
 20
13.8000001907349
 11
-1.84999942779541
 21
0
  0
LINE
  5
272
100
AcDbEntity
  8
CONT_S_4
100
AcDbLine
  6
BYLAYER
 10
-2.34999942779544
 20
0
 11
2.34999942779541
 21
0
  0
ARC
  5
273
100
AcDbEntity
  8
CONT_S_4
100
AcDbCircle
  6
BYLAYER
 10
2.84999942779541
 20
13.8000001907349
 40
1
100
AcDbArc
 50
90.0000025044709
 51
180.000005008963
  0
ARC
  5
274
100
AcDbEntity
  8
CONT_S_4
100
AcDbCircle
  6
BYLAYER
 10
-7.08839130401614
 20
13.8000001907349
 40
1
100
AcDbArc
 50
90.0000025044709
 51
177.699993447471
  0
ARC
  5
275
100
AcDbEntity
  8
CONT_S_4
100
AcDbCircle
  6
BYLAYER
 10
7.08839130401611
 20
13.8000001907349
 40
1
100
AcDbArc
 50
2.30000003554378
 51
90.0000025044709
  0
ARC
  5
276
100
AcDbEntity
  8
CONT_S_4
100
AcDbCircle
  6
BYLAYER
 10
-2.84999942779541
 20
13.8000001907349
 40
1
100
AcDbArc
 50
0
 51
90.0000025044709
  0
ENDBLK
  5
277
100
AcDbEntity
  8
0
 67
     1
100
AcDbBlockEnd
  0
BLOCK
  5
278
100
AcDbEntity
  8
0
100
AcDbBlockBegin
  2
下枠_KE1032
 70
    0
 10
0
 20
0
 30
0.0
  3
下枠_KE1032
  1

  0
LINE
  5
279
100
AcDbEntity
  8
AM_0
100
AcDbLine
  6
BYLAYER
 10
40.8
 20
74.9999999999997
 11
43.5
 21
74.9999999999997
  0
LINE
  5
27A
100
AcDbEntity
  8
AM_0
100
AcDbLine
  6
BYLAYER
 10
55
 20
44.9999999999997
 11
55
 21
3.00000000000023
  0
LINE
  5
27B
100
AcDbEntity
  8
AM_0
100
AcDbLine
  6
BYLAYER
 10
52
 20
-3.411E-13
 11
31.4582575694956
 21
-3.411E-13
  0
LINE
  5
27C
100
AcDbEntity
  8
AM_0
100
AcDbLine
  6
BYLAYER
 10
-35
 20
2.99999999999966
 11
-35
 21
19.9999999999997
  0
LINE
  5
27D
100
AcDbEntity
  8
AM_0
100
AcDbLine
  6
BYLAYER
 10
52
 20
1.49999999999966
 11
-8
 21
1.49999999999966
  0
LINE
  5
27E
100
AcDbEntity
  8
AM_0
100
AcDbLine
  6
BYLAYER
 10
-34
 20
19.9999999999997
 11
-35
 21
19.9999999999997
  0
LINE
  5
27F
100
AcDbEntity
  8
AM_0
100
AcDbLine
  6
BYLAYER
 10
-34
 20
15.4999999999997
 11
-34
 21
19.9999999999997
  0
LINE
  5
280
100
AcDbEntity
  8
AM_0
100
AcDbLine
  6
BYLAYER
 10
-34
 20
15.4999999999997
 11
-28.75
 21
15.4999999999997
  0
LINE
  5
281
100
AcDbEntity
  8
AM_0
100
AcDbLine
  6
BYLAYER
 10
-33.5
 20
13.9999999999997
 11
-10.5
 21
13.9999999999997
  0
LINE
  5
282
100
AcDbEntity
  8
AM_0
100
AcDbLine
  6
BYLAYER
 10
-33.5
 20
2.99999999999966
 11
-33.5
 21
13.9999999999997
  0
LINE
  5
283
100
AcDbEntity
  8
AM_0
100
AcDbLine
  6
BYLAYER
 10
-27.25
 20
15.4999999999997
 11
-27.25
 21
18.9999999999997
  0
LINE
  5
284
100
AcDbEntity
  8
AM_0
100
AcDbLine
  6
BYLAYER
 10
-28.75
 20
15.4999999999997
 11
-28.75
 21
18.9999999999997
  0
LINE
  5
285
100
AcDbEntity
  8
AM_0
100
AcDbLine
  6
BYLAYER
 10
-27.25
 20
15.4999999999997
 11
-18.25
 21
15.4999999999997
  0
LINE
  5
286
100
AcDbEntity
  8
AM_0
100
AcDbLine
  6
BYLAYER
 10
-18.25
 20
15.4999999999997
 11
-18.25
 21
18.9999999999997
  0
LINE
  5
287
100
AcDbEntity
  8
AM_0
100
AcDbLine
  6
BYLAYER
 10
-16.75
 20
15.4999999999997
 11
-16.75
 21
18.9999999999997
  0
LINE
  5
288
100
AcDbEntity
  8
AM_0
100
AcDbLine
  6
BYLAYER
 10
-10.5
 20
15.4999999999997
 11
-10.5000000000001
 21
63.0778793713538
  0
LINE
  5
289
100
AcDbEntity
  8
AM_0
100
AcDbLine
  6
BYLAYER
 10
55
 20
44.9999999999997
 11
43.5
 21
51.6395280956805
  0
LINE
  5
28A
100
AcDbEntity
  8
AM_0
100
AcDbLine
  6
BYLAYER
 10
53.5
 20
44.1339745962152
 11
42
 21
50.7735026918962
  0
ARC
  5
28B
100
AcDbEntity
  8
AM_0
100
AcDbCircle
  6
BYLAYER
 10
42.5
 20
51.6395280956805
 40
1
100
AcDbArc
 50
180
 51
239.999999999975
  0
LINE
  5
28C
100
AcDbEntity
  8
AM_0
100
AcDbLine
  6
BYLAYER
 10
43.5
 20
66.5999999999997
 11
43.5
 21
61.4582575694955
  0
LINE
  5
28D
100
AcDbEntity
  8
AM_0
100
AcDbLine
  6
BYLAYER
 10
41.5
 20
55.9999999999997
 11
41.5
 21
51.6395280956805
  0
LINE
  5
28E
100
AcDbEntity
  8
AM_0
100
AcDbLine
  6
BYLAYER
 10
39.5
 20
65.8669978935185
 11
39.5
 21
57.9999999999999
  0
LINE
  5
28F
100
AcDbEntity
  8
AM_0
100
AcDbLine
  6
BYLAYER
 10
39.5
 20
57.9999999999999
 11
41.5
 21
55.9999999999997
  0
LINE
  5
290
100
AcDbEntity
  8
AM_0
100
AcDbLine
  6
BYLAYER
 10
41.3
 20
73.7999999999997
 11
42.8
 21
73.7999999999997
  0
LINE
  5
291
100
AcDbEntity
  8
AM_0
100
AcDbLine
  6
BYLAYER
 10
44
 20
74.4999999999997
 11
44
 21
72.7999999999997
  0
LINE
  5
292
100
AcDbEntity
  8
AM_0
100
AcDbLine
  6
BYLAYER
 10
41.3
 20
73.7999999999997
 11
41.3
 21
67.7999999999998
  0
LINE
  5
293
100
AcDbEntity
  8
AM_0
100
AcDbLine
  6
BYLAYER
 10
42.8
 20
73.7999999999997
 11
42.8
 21
72.2999999999997
  0
LINE
  5
294
100
AcDbEntity
  8
AM_0
100
AcDbLine
  6
BYLAYER
 10
42.8
 20
72.2999999999997
 11
43.5
 21
72.2999999999997
  0
LINE
  5
295
100
AcDbEntity
  8
AM_0
100
AcDbLine
  6
BYLAYER
 10
41.3
 20
67.7999999999998
 11
42.8
 21
67.7999999999998
  0
LINE
  5
296
100
AcDbEntity
  8
AM_0
100
AcDbLine
  6
BYLAYER
 10
42.8
 20
69.2999999999998
 11
42.8
 21
67.7999999999998
  0
LINE
  5
297
100
AcDbEntity
  8
AM_0
100
AcDbLine
  6
BYLAYER
 10
44
 20
68.7999999999997
 11
44
 21
67.0999999999998
  0
LINE
  5
298
100
AcDbEntity
  8
AM_0
100
AcDbLine
  6
BYLAYER
 10
42.8
 20
69.2999999999998
 11
43.5
 21
69.2999999999998
  0
ARC
  5
299
100
AcDbEntity
  8
AM_0
100
AcDbCircle
  6
BYLAYER
 10
31
 20
-0.200000000000159
 40
0.5
100
AcDbArc
 50
23.5781784782266
 51
156.421821521773
  0
LINE
  5
29A
100
AcDbEntity
  8
AM_0
100
AcDbLine
  6
BYLAYER
 10
30.5417424305044
 20
-3.411E-13
 11
0.458257569495572
 21
-3.411E-13
  0
ARC
  5
29B
100
AcDbEntity
  8
AM_0
100
AcDbCircle
  6
BYLAYER
 10
0
 20
-0.200000000000159
 40
0.5
100
AcDbArc
 50
23.5781784782266
 51
156.421821521773
  0
LINE
  5
29C
100
AcDbEntity
  8
AM_0
100
AcDbLine
  6
BYLAYER
 10
-0.458257569495572
 20
-3.411E-13
 11
-32
 21
-3.411E-13
  0
LINE
  5
29D
100
AcDbEntity
  8
AM_0
100
AcDbLine
  6
BYLAYER
 10
39.8
 20
73.9999999999997
 11
39.8
 21
69.6999999999997
  0
LINE
  5
29E
100
AcDbEntity
  8
AM_0
100
AcDbLine
  6
BYLAYER
 10
-10.5000000000001
 20
63.0778793713538
 11
39.8
 21
69.6999999999997
  0
LINE
  5
29F
100
AcDbEntity
  8
AM_0
100
AcDbLine
  6
BYLAYER
 10
-8.13052619222009
 20
61.8768830752459
 11
-4.51566365751643
 21
62.3527887563745
  0
ARC
  5
2A0
100
AcDbEntity
  8
AM_0
100
AcDbCircle
  6
BYLAYER
 10
-0.75
 20
62.2990381056767
 40
0.5
100
AcDbArc
 50
52.0243128370481
 51
187.975687162977
  0
ARC
  5
2A1
100
AcDbEntity
  8
AM_0
100
AcDbCircle
  6
BYLAYER
 10
0.75
 20
62.2990381056767
 40
0.5
100
AcDbArc
 50
352.024312837023
 51
127.975687162952
  0
ARC
  5
2A2
100
AcDbEntity
  8
AM_0
100
AcDbCircle
  6
BYLAYER
 10
0
 20
60.9999999999999
 40
1.75
100
AcDbArc
 50
75.3588855808273
 51
104.641114419173
  0
ARC
  5
2A3
100
AcDbEntity
  8
AM_0
100
AcDbCircle
  6
BYLAYER
 10
1.9341020498872
 20
59.3000369825721
 40
0.825000000000001
100
AcDbArc
 50
138.686412236933
 51
318.686412236932
  0
ARC
  5
2A4
100
AcDbEntity
  8
AM_0
100
AcDbCircle
  6
BYLAYER
 10
0
 20
60.9999999999999
 40
3.4
100
AcDbArc
 50
318.686412236932
 51
19.7106415349368
  0
ARC
  5
2A5
100
AcDbEntity
  8
AM_0
100
AcDbCircle
  6
BYLAYER
 10
0
 20
60.9999999999999
 40
1.75
100
AcDbArc
 50
15.3588855807965
 51
44.6411144191794
  0
ARC
  5
2A6
100
AcDbEntity
  8
AM_0
100
AcDbCircle
  6
BYLAYER
 10
0
 20
60.9999999999999
 40
1.75
100
AcDbArc
 50
318.686412236932
 51
344.641114419204
  0
ARC
  5
2A7
100
AcDbEntity
  8
AM_0
100
AcDbCircle
  6
BYLAYER
 10
1.5
 20
60.9999999999999
 40
0.5
100
AcDbArc
 50
292.024312837072
 51
67.9756871629281
  0
ARC
  5
2A8
100
AcDbEntity
  8
AM_0
100
AcDbCircle
  6
BYLAYER
 10
0
 20
60.9999999999999
 40
1.75
100
AcDbArc
 50
135.358885580821
 51
164.641114419203
  0
ARC
  5
2A9
100
AcDbEntity
  8
AM_0
100
AcDbCircle
  6
BYLAYER
 10
-1.5
 20
60.9999999999999
 40
0.5
100
AcDbArc
 50
112.024312837072
 51
247.975687162928
  0
ARC
  5
2AA
100
AcDbEntity
  8
AM_0
100
AcDbCircle
  6
BYLAYER
 10
0
 20
60.9999999999999
 40
1.75
100
AcDbArc
 50
195.358885580796
 51
221.313587763067
  0
ARC
  5
2AB
100
AcDbEntity
  8
AM_0
100
AcDbCircle
  6
BYLAYER
 10
-1.9341020498872
 20
59.3000369825721
 40
0.825000000000001
100
AcDbArc
 50
221.313587763067
 51
41.3135877630675
  0
ARC
  5
2AC
100
AcDbEntity
  8
AM_0
100
AcDbCircle
  6
BYLAYER
 10
0
 20
60.9999999999999
 40
3.4
100
AcDbArc
 50
175.289358465056
 51
221.313587763067
  0
LINE
  5
2AD
100
AcDbEntity
  8
AM_0
100
AcDbLine
  6
BYLAYER
 10
4.01166865547969
 20
63.4754333531381
 11
26.4918889110948
 21
66.4350104961046
  0
ARC
  5
2AE
100
AcDbEntity
  8
AM_0
100
AcDbCircle
  6
BYLAYER
 10
30.25
 20
66.2990381056765
 40
0.5
100
AcDbArc
 50
52.0243128370481
 51
187.975687162977
  0
ARC
  5
2AF
100
AcDbEntity
  8
AM_0
100
AcDbCircle
  6
BYLAYER
 10
31.75
 20
66.2990381056765
 40
0.5
100
AcDbArc
 50
352.024312837023
 51
127.975687162952
  0
ARC
  5
2B0
100
AcDbEntity
  8
AM_0
100
AcDbCircle
  6
BYLAYER
 10
31
 20
64.9999999999997
 40
1.75
100
AcDbArc
 50
75.3588855808273
 51
104.641114419173
  0
ARC
  5
2B1
100
AcDbEntity
  8
AM_0
100
AcDbCircle
  6
BYLAYER
 10
32.9341020498872
 20
63.3000369825719
 40
0.825000000000001
100
AcDbArc
 50
138.686412236933
 51
318.686412236932
  0
ARC
  5
2B2
100
AcDbEntity
  8
AM_0
100
AcDbCircle
  6
BYLAYER
 10
31
 20
64.9999999999997
 40
3.4
100
AcDbArc
 50
318.686412236932
 51
20.7858371710977
  0
ARC
  5
2B3
100
AcDbEntity
  8
AM_0
100
AcDbCircle
  6
BYLAYER
 10
31
 20
64.9999999999997
 40
1.75
100
AcDbArc
 50
15.3588855807965
 51
44.6411144191794
  0
ARC
  5
2B4
100
AcDbEntity
  8
AM_0
100
AcDbCircle
  6
BYLAYER
 10
31
 20
64.9999999999997
 40
1.75
100
AcDbArc
 50
318.686412236932
 51
344.641114419204
  0
ARC
  5
2B5
100
AcDbEntity
  8
AM_0
100
AcDbCircle
  6
BYLAYER
 10
32.5
 20
64.9999999999997
 40
0.5
100
AcDbArc
 50
292.024312837072
 51
67.9756871629281
  0
ARC
  5
2B6
100
AcDbEntity
  8
AM_0
100
AcDbCircle
  6
BYLAYER
 10
31
 20
64.9999999999997
 40
1.75
100
AcDbArc
 50
135.358885580821
 51
164.641114419203
  0
ARC
  5
2B7
100
AcDbEntity
  8
AM_0
100
AcDbCircle
  6
BYLAYER
 10
29.5
 20
64.9999999999997
 40
0.5
100
AcDbArc
 50
112.024312837072
 51
247.975687162928
  0
ARC
  5
2B8
100
AcDbEntity
  8
AM_0
100
AcDbCircle
  6
BYLAYER
 10
31
 20
64.9999999999997
 40
1.75
100
AcDbArc
 50
195.358885580796
 51
221.313587763067
  0
ARC
  5
2B9
100
AcDbEntity
  8
AM_0
100
AcDbCircle
  6
BYLAYER
 10
29.0658979501128
 20
63.3000369825719
 40
0.825000000000001
100
AcDbArc
 50
221.313587763067
 51
41.3135877630675
  0
ARC
  5
2BA
100
AcDbEntity
  8
AM_0
100
AcDbCircle
  6
BYLAYER
 10
31
 20
64.9999999999997
 40
3.4
100
AcDbArc
 50
174.214162828891
 51
221.313587763067
  0
LINE
  5
2BB
100
AcDbEntity
  8
AM_0
100
AcDbLine
  6
BYLAYER
 10
34.9830928822397
 20
67.55289870643
 11
37.2389476155599
 21
67.8498876162661
  0
ARC
  5
2BC
100
AcDbEntity
  8
AM_0
100
AcDbCircle
  6
BYLAYER
 10
37.5
 20
65.8669978935185
 40
2
100
AcDbArc
 50
0
 51
97.4999999999974
  0
ARC
  5
2BD
100
AcDbEntity
  8
AM_0
100
AcDbCircle
  6
BYLAYER
 10
40.8
 20
73.9999999999997
 40
1
100
AcDbArc
 50
90
 51
180
  0
ARC
  5
2BE
100
AcDbEntity
  8
AM_0
100
AcDbCircle
  6
BYLAYER
 10
43.5
 20
74.4999999999997
 40
0.5
100
AcDbArc
 50
0
 51
90
  0
ARC
  5
2BF
100
AcDbEntity
  8
AM_0
100
AcDbCircle
  6
BYLAYER
 10
43.5
 20
68.7999999999997
 40
0.5
100
AcDbArc
 50
0
 51
90
  0
ARC
  5
2C0
100
AcDbEntity
  8
AM_0
100
AcDbCircle
  6
BYLAYER
 10
43.5
 20
72.7999999999997
 40
0.5
100
AcDbArc
 50
270
 51
0
  0
ARC
  5
2C1
100
AcDbEntity
  8
AM_0
100
AcDbCircle
  6
BYLAYER
 10
43.5
 20
67.0999999999998
 40
0.5
100
AcDbArc
 50
270
 51
0
  0
LINE
  5
2C2
100
AcDbEntity
  8
AM_0
100
AcDbLine
  6
BYLAYER
 10
-16.75
 20
15.4999999999997
 11
-10.5
 21
15.4999999999997
  0
ARC
  5
2C3
100
AcDbEntity
  8
AM_0
100
AcDbCircle
  6
BYLAYER
 10
35.1136190744597
 20
66.5614538450562
 40
1
100
AcDbArc
 50
97.4999999999974
 51
200.785837171098
  0
ARC
  5
2C4
100
AcDbEntity
  8
AM_0
100
AcDbCircle
  6
BYLAYER
 10
26.6224151033149
 20
65.4435656347308
 40
1
100
AcDbArc
 50
354.214162828892
 51
97.4999999999974
  0
ARC
  5
2C5
100
AcDbEntity
  8
AM_0
100
AcDbCircle
  6
BYLAYER
 10
4.14219484769975
 20
62.4839884917643
 40
1
100
AcDbArc
 50
97.4999999999974
 51
199.710641534937
  0
ARC
  5
2C6
100
AcDbEntity
  8
AM_0
100
AcDbCircle
  6
BYLAYER
 10
-4.38513746529634
 20
61.3613438950007
 40
1
100
AcDbArc
 50
355.289358465056
 51
97.4999999999974
  0
ARC
  5
2C7
100
AcDbEntity
  8
AM_0
100
AcDbCircle
  6
BYLAYER
 10
43.7
 20
60.9999999999999
 40
0.5
100
AcDbArc
 50
113.578178478207
 51
246.421821521793
  0
LINE
  5
2C8
100
AcDbEntity
  8
AM_0
100
AcDbLine
  6
BYLAYER
 10
43.5
 20
60.5417424305043
 11
43.5
 21
51.6395280956805
  0
LINE
  5
2C9
100
AcDbEntity
  8
AM_0
100
AcDbLine
  6
BYLAYER
 10
53.5
 20
44.1339745962152
 11
53.5
 21
3.00000000000023
  0
LINE
  5
2CA
100
AcDbEntity
  8
AM_0
100
AcDbLine
  6
BYLAYER
 10
-9
 20
2.5
 11
-9.00000000000006
 21
60.8854382138721
  0
ARC
  5
2CB
100
AcDbEntity
  8
AM_0
100
AcDbCircle
  6
BYLAYER
 10
-8.00000000000006
 20
60.8854382138721
 40
1
100
AcDbArc
 50
97.4999999999974
 51
180
  0
LINE
  5
2CC
100
AcDbEntity
  8
AM_0
100
AcDbLine
  6
BYLAYER
 10
-10.5
 20
2.5
 11
-10.5
 21
13.9999999999997
  0
LINE
  5
2CD
100
AcDbEntity
  8
AM_0
100
AcDbLine
  6
BYLAYER
 10
-11.5
 20
1.49999999999966
 11
-32
 21
1.49999999999966
  0
ARC
  5
2CE
100
AcDbEntity
  8
AM_0
100
AcDbCircle
  6
BYLAYER
 10
-11.5
 20
2.5
 40
1
100
AcDbArc
 50
270
 51
0
  0
ARC
  5
2CF
100
AcDbEntity
  8
AM_0
100
AcDbCircle
  6
BYLAYER
 10
-8
 20
2.5
 40
1
100
AcDbArc
 50
180
 51
270
  0
ARC
  5
2D0
100
AcDbEntity
  8
AM_0
100
AcDbCircle
  6
BYLAYER
 10
-32
 20
2.99999999999966
 40
3
100
AcDbArc
 50
180
 51
270
  0
ARC
  5
2D1
100
AcDbEntity
  8
AM_0
100
AcDbCircle
  6
BYLAYER
 10
-32
 20
2.99999999999966
 40
1.5
100
AcDbArc
 50
180
 51
270
  0
LINE
  5
2D2
100
AcDbEntity
  8
AM_0
100
AcDbLine
  6
BYLAYER
 10
-29.5
 20
21.1999999999997
 11
-29
 21
21.4999999999997
  0
LINE
  5
2D3
100
AcDbEntity
  8
AM_0
100
AcDbLine
  6
BYLAYER
 10
-27
 20
21.4999999999997
 11
-26.5
 21
21.1999999999997
  0
LINE
  5
2D4
100
AcDbEntity
  8
AM_0
100
AcDbLine
  6
BYLAYER
 10
-28.75
 20
18.9999999999997
 11
-29.5
 21
18.9999999999994
  0
LINE
  5
2D5
100
AcDbEntity
  8
AM_0
100
AcDbLine
  6
BYLAYER
 10
-29.5
 20
21.1999999999997
 11
-29.5
 21
18.9999999999997
  0
LINE
  5
2D6
100
AcDbEntity
  8
AM_0
100
AcDbLine
  6
BYLAYER
 10
-26.5
 20
21.1999999999997
 11
-26.5
 21
18.9999999999997
  0
LINE
  5
2D7
100
AcDbEntity
  8
AM_0
100
AcDbLine
  6
BYLAYER
 10
-26.5
 20
18.9999999999997
 11
-27.25
 21
18.9999999999997
  0
LINE
  5
2D8
100
AcDbEntity
  8
AM_0
100
AcDbLine
  6
BYLAYER
 10
-27
 20
21.4999999999997
 11
-29
 21
21.4999999999997
  0
LINE
  5
2D9
100
AcDbEntity
  8
AM_0
100
AcDbLine
  6
BYLAYER
 10
-19
 20
21.1999999999997
 11
-18.5
 21
21.4999999999997
  0
LINE
  5
2DA
100
AcDbEntity
  8
AM_0
100
AcDbLine
  6
BYLAYER
 10
-16.5
 20
21.4999999999997
 11
-16
 21
21.1999999999997
  0
LINE
  5
2DB
100
AcDbEntity
  8
AM_0
100
AcDbLine
  6
BYLAYER
 10
-18.25
 20
18.9999999999997
 11
-19
 21
18.9999999999994
  0
LINE
  5
2DC
100
AcDbEntity
  8
AM_0
100
AcDbLine
  6
BYLAYER
 10
-19
 20
21.1999999999997
 11
-19
 21
18.9999999999997
  0
LINE
  5
2DD
100
AcDbEntity
  8
AM_0
100
AcDbLine
  6
BYLAYER
 10
-16
 20
21.1999999999997
 11
-16
 21
18.9999999999997
  0
LINE
  5
2DE
100
AcDbEntity
  8
AM_0
100
AcDbLine
  6
BYLAYER
 10
-16
 20
18.9999999999997
 11
-16.75
 21
18.9999999999997
  0
LINE
  5
2DF
100
AcDbEntity
  8
AM_0
100
AcDbLine
  6
BYLAYER
 10
-16.5
 20
21.4999999999997
 11
-18.5
 21
21.4999999999997
  0
ARC
  5
2E0
100
AcDbEntity
  8
AM_0
100
AcDbCircle
  6
BYLAYER
 10
52
 20
3.00000000000023
 40
3
100
AcDbArc
 50
270
 51
0
  0
ARC
  5
2E1
100
AcDbEntity
  8
AM_0
100
AcDbCircle
  6
BYLAYER
 10
52
 20
3.00000000000023
 40
1.5
100
AcDbArc
 50
270
 51
0
  0
ENDBLK
  5
2E2
100
AcDbEntity
  8
0
 67
     1
100
AcDbBlockEnd
  0
BLOCK
  5
2E3
100
AcDbEntity
  8
0
100
AcDbBlockBegin
  2
はかま_KE1029
 70
    0
 10
0
 20
0
 30
0.0
  3
はかま_KE1029
  1

  0
LINE
  5
2E4
100
AcDbEntity
  8
CONT_S_4
100
AcDbLine
  6
BYLAYER
 10
3.44999999999661
 20
-23.0000000000008
 11
3.24999999999679
 21
-23.0000000000008
  0
ARC
  5
2E5
100
AcDbEntity
  8
CONT_S_4
100
AcDbCircle
  6
BYLAYER
 10
3.44999999999661
 20
-22.0000000000008
 40
1
100
AcDbArc
 50
270
 51
0
  0
LINE
  5
2E6
100
AcDbEntity
  8
CONT_S_4
100
AcDbLine
  6
BYLAYER
 10
-3.25000000000503
 20
-23.0000000000008
 11
-3.45000000000303
 21
-23.0000000000008
  0
ARC
  5
2E7
100
AcDbEntity
  8
CONT_S_4
100
AcDbCircle
  6
BYLAYER
 10
-3.45000000000303
 20
-22.0000000000008
 40
1
100
AcDbArc
 50
180
 51
269.999999999913
  0
LINE
  5
2E8
100
AcDbEntity
  8
CONT_S_4
100
AcDbLine
  6
BYLAYER
 10
3.24999999999679
 20
-18.2000000000002
 11
3.04999999999606
 21
-18.0000000000003
  0
LINE
  5
2E9
100
AcDbEntity
  8
CONT_S_4
100
AcDbLine
  6
BYLAYER
 10
-3.05000000000433
 20
-18.0000000000013
 11
-3.25000000000503
 21
-18.2000000000002
  0
LINE
  5
2EA
100
AcDbEntity
  8
CONT_S_4
100
AcDbLine
  6
BYLAYER
 10
3.24999999999679
 20
-23.0000000000003
 11
3.24999999999679
 21
-18.2000000000002
  0
LINE
  5
2EB
100
AcDbEntity
  8
CONT_S_4
100
AcDbLine
  6
BYLAYER
 10
-3.25000000000503
 20
-23.0000000000003
 11
-3.25000000000503
 21
-18.2000000000002
  0
LINE
  5
2EC
100
AcDbEntity
  8
CONT_S_4
100
AcDbLine
  6
BYLAYER
 10
3.44999999999661
 20
13.9999999999997
 11
3.04999999999788
 21
13.9999999999997
  0
LINE
  5
2ED
100
AcDbEntity
  8
CONT_S_4
100
AcDbLine
  6
BYLAYER
 10
-3.05000000000433
 20
13.9999999999997
 11
-3.45000000000303
 21
13.9999999999997
  0
LINE
  5
2EE
100
AcDbEntity
  8
CONT_S_4
100
AcDbLine
  6
BYLAYER
 10
4.44999999999661
 20
12.9999999999997
 11
4.44999999999661
 21
-22.0000000000008
  0
ARC
  5
2EF
100
AcDbEntity
  8
CONT_S_4
100
AcDbCircle
  6
BYLAYER
 10
3.44999999999661
 20
12.9999999999997
 40
1
100
AcDbArc
 50
0
 51
90
  0
LINE
  5
2F0
100
AcDbEntity
  8
CONT_S_4
100
AcDbLine
  6
BYLAYER
 10
-4.45000000000306
 20
12.9999999999997
 11
-4.45000000000306
 21
-22.0000000000008
  0
ARC
  5
2F1
100
AcDbEntity
  8
CONT_S_4
100
AcDbCircle
  6
BYLAYER
 10
-3.45000000000303
 20
12.9999999999997
 40
1
100
AcDbArc
 50
90
 51
180
  0
LINE
  5
2F2
100
AcDbEntity
  8
CONT_S_4
100
AcDbLine
  6
BYLAYER
 10
-3.05000000000066
 20
-0.226794919243275
 11
-3.05000000000433
 21
13.9999999999997
  0
LINE
  5
2F3
100
AcDbEntity
  8
CONT_S_4
100
AcDbLine
  6
BYLAYER
 10
3.04999999999788
 20
13.9999999999997
 11
3.04999999999788
 21
-0.226794919243162
  0
LINE
  5
2F4
100
AcDbEntity
  8
CONT_S_4
100
AcDbLine
  6
BYLAYER
 10
-3.05000000000271
 20
-1.77320508075684
 11
-3.05000000000433
 21
-18.0000000000013
  0
LINE
  5
2F5
100
AcDbEntity
  8
CONT_S_4
100
AcDbLine
  6
BYLAYER
 10
3.04999999999788
 20
-1.77320508075684
 11
3.04999999999606
 21
-17.9999999999994
  0
LINE
  5
2F6
100
AcDbEntity
  8
CONT_S_4
100
AcDbLine
  6
BYLAYER
 10
-2.90000000000242
 20
-1.68660254037843
 11
-2.35717967697431
 21
-2.00000000000034
  0
LINE
  5
2F7
100
AcDbEntity
  8
CONT_S_4
100
AcDbLine
  6
BYLAYER
 10
-2.9000000000008
 20
-0.313397459621683
 11
-2.35717967697226
 21
3.411E-13
  0
LINE
  5
2F8
100
AcDbEntity
  8
CONT_S_4
100
AcDbLine
  6
BYLAYER
 10
2.89999999999802
 20
-1.68660254037843
 11
2.35717967696948
 21
-2.00000000000034
  0
ARC
  5
2F9
100
AcDbEntity
  8
CONT_S_4
100
AcDbCircle
  6
BYLAYER
 10
2.94999999999797
 20
-1.77320508075684
 40
0.1
100
AcDbArc
 50
0
 51
120.000000000016
  0
LINE
  5
2FA
100
AcDbEntity
  8
CONT_S_4
100
AcDbLine
  6
BYLAYER
 10
2.89999999999802
 20
-0.313397459621569
 11
2.35717967697221
 21
-1.2506E-12
  0
ARC
  5
2FB
100
AcDbEntity
  8
CONT_S_4
100
AcDbCircle
  6
BYLAYER
 10
2.94999999999797
 20
-0.226794919243162
 40
0.1
100
AcDbArc
 50
239.999999999984
 51
0
  0
LINE
  5
2FC
100
AcDbEntity
  8
CONT_S_4
100
AcDbLine
  6
BYLAYER
 10
2.35717967696948
 20
-2.00000000000034
 11
-2.35717967697431
 21
-2.00000000000034
  0
ARC
  5
2FD
100
AcDbEntity
  8
CONT_S_4
100
AcDbCircle
  6
BYLAYER
 10
-2.95000000000076
 20
-0.226794919243162
 40
0.1
100
AcDbArc
 50
180
 51
300.000000000016
  0
LINE
  5
2FE
100
AcDbEntity
  8
CONT_S_4
100
AcDbLine
  6
BYLAYER
 10
-2.35717967697226
 20
3.411E-13
 11
2.35717967697221
 21
-1.2506E-12
  0
ARC
  5
2FF
100
AcDbEntity
  8
CONT_S_4
100
AcDbCircle
  6
BYLAYER
 10
-2.95000000000238
 20
-1.77320508075684
 40
0.1
100
AcDbArc
 50
59.999999999984
 51
180
  0
ENDBLK
  5
300
100
AcDbEntity
  8
0
 67
     1
100
AcDbBlockEnd
  0
BLOCK
  5
301
100
AcDbEntity
  8
0
100
AcDbBlockBegin
  2
戸車_XR1987_SV
 70
    0
 10
0
 20
0
 30
0.0
  3
戸車_XR1987_SV
  1

  0
LINE
  5
302
100
AcDbEntity
  8
CONT_S_4
100
AcDbLine
  6
BYLAYER
 10
-1.75000000000003
 20
-2.274E-13
 11
-1.75000000000003
 21
3.99999999999943
  0
LINE
  5
303
100
AcDbEntity
  8
CONT_S_4
100
AcDbLine
  6
BYLAYER
 10
1.75
 20
-2.274E-13
 11
1.75
 21
3.99999999999943
  0
LINE
  5
304
100
AcDbEntity
  8
CONT_S_4
100
AcDbLine
  6
BYLAYER
 10
2.10000000000002
 20
18.9999999999994
 11
2.10000000000002
 21
18.4999999999995
  0
LINE
  5
305
100
AcDbEntity
  8
CONT_S_4
100
AcDbLine
  6
BYLAYER
 10
-2.10000000000005
 20
18.9999999999994
 11
-2.10000000000005
 21
18.4999999999995
  0
LINE
  5
306
100
AcDbEntity
  8
CONT_S_4
100
AcDbLine
  6
BYLAYER
 10
2.30000000000001
 20
-1.50000000000057
 11
2.30000000000001
 21
-1.00000000000034
  0
LINE
  5
307
100
AcDbEntity
  8
CONT_S_4
100
AcDbLine
  6
BYLAYER
 10
-2.30000000000004
 20
-1.50000000000057
 11
-2.30000000000004
 21
-1.00000000000034
  0
LINE
  5
308
100
AcDbEntity
  8
CONT_S_4
100
AcDbLine
  6
BYLAYER
 10
3.09999999999996
 20
2.94999999999698
 11
3.09999999999996
 21
-1.50000000000057
  0
LINE
  5
309
100
AcDbEntity
  8
CONT_S_4
100
AcDbLine
  6
BYLAYER
 10
-3.09999999999999
 20
2.9500000000022
 11
-3.09999999999999
 21
-1.50000000000057
  0
LINE
  5
30A
100
AcDbEntity
  8
CONT_S_4
100
AcDbLine
  6
BYLAYER
 10
-1.75000000000003
 20
-2.274E-13
 11
1.75
 21
-2.274E-13
  0
LINE
  5
30B
100
AcDbEntity
  8
CONT_S_4
100
AcDbLine
  6
BYLAYER
 10
-3.09999999999999
 20
-1.50000000000057
 11
-2.30000000000004
 21
-1.50000000000057
  0
LINE
  5
30C
100
AcDbEntity
  8
CONT_S_4
100
AcDbLine
  6
BYLAYER
 10
2.30000000000001
 20
-1.50000000000057
 11
3.09999999999996
 21
-1.50000000000057
  0
LINE
  5
30D
100
AcDbEntity
  8
CONT_S_4
100
AcDbLine
  6
BYLAYER
 10
-3.05000000000157
 20
18.9999999999994
 11
-2.10000000000005
 21
18.9999999999994
  0
LINE
  5
30E
100
AcDbEntity
  8
CONT_S_4
100
AcDbLine
  6
BYLAYER
 10
2.10000000000002
 20
18.9999999999994
 11
3.04999999999882
 21
18.9999999999994
  0
ARC
  5
30F
100
AcDbEntity
  8
CONT_S_4
100
AcDbCircle
  6
BYLAYER
 10
-2.30000000000004
 20
-0.750000000000341
 40
0.25
100
AcDbArc
 50
270
 51
90
  0
ARC
  5
310
100
AcDbEntity
  8
CONT_S_4
100
AcDbCircle
  6
BYLAYER
 10
2.30000000000001
 20
-0.750000000000341
 40
0.25
100
AcDbArc
 50
90
 51
270
  0
LINE
  5
311
100
AcDbEntity
  8
CONT_S_4
100
AcDbLine
  6
BYLAYER
 10
-2.09999999999994
 20
18.4999999999997
 11
2.10000000000002
 21
18.4999999999993
  0
LINE
  5
312
100
AcDbEntity
  8
CONT_S_4
100
AcDbLine
  6
BYLAYER
 10
-2.30000000000004
 20
3.99999999999943
 11
-1.75000000000003
 21
3.99999999999954
  0
LINE
  5
313
100
AcDbEntity
  8
CONT_S_4
100
AcDbLine
  6
BYLAYER
 10
1.75
 20
3.99999999999954
 11
2.29999999999998
 21
3.99999999999954
  0
LINE
  5
314
100
AcDbEntity
  8
CONT_S_4
100
AcDbLine
  6
BYLAYER
 10
-2.30000000000004
 20
-0.500000000000455
 11
-2.30000000000004
 21
3.99999999999943
  0
LINE
  5
315
100
AcDbEntity
  8
CONT_S_4
100
AcDbLine
  6
BYLAYER
 10
2.30000000000001
 20
-0.500000000000455
 11
2.30000000000001
 21
3.99999999999943
  0
ENDBLK
  5
316
100
AcDbEntity
  8
0
 67
     1
100
AcDbBlockEnd
  0
BLOCK
  5
317
100
AcDbEntity
  8
0
100
AcDbBlockBegin
  2
柱キャップ_横
 70
    0
 10
0
 20
0
 30
0.0
  3
柱キャップ_横
  1

  0
LINE
  5
318
100
AcDbEntity
  8
AM_0
100
AcDbLine
  6
BYLAYER
 10
-50.9462198747187
 20
2
 11
50.9462198747192
 21
2
  0
ARC
  5
319
100
AcDbEntity
  8
AM_0
100
AcDbCircle
  6
BYLAYER
 10
50.9462198747192
 20
0.999999999999943
 40
1
100
AcDbArc
 50
3.0000000000061
 51
90
  0
LINE
  5
31A
100
AcDbEntity
  8
AM_0
100
AcDbLine
  6
BYLAYER
 10
-51.9448494094736
 20
1.05233595624293
 11
-52
 21
0
  0
ARC
  5
31B
100
AcDbEntity
  8
AM_0
100
AcDbCircle
  6
BYLAYER
 10
-50.9462198747187
 20
1.00000000000006
 40
1
100
AcDbArc
 50
90
 51
176.999999999994
  0
LINE
  5
31C
100
AcDbEntity
  8
AM_0
100
AcDbLine
  6
BYLAYER
 10
51.9448494094736
 20
1.05233595624293
 11
52
 21
-5.68E-14
  0
LINE
  5
31D
100
AcDbEntity
  8
AM_0
100
AcDbLine
  6
BYLAYER
 10
-52
 20
0
 11
-52
 21
-4.99999999999994
  0
LINE
  5
31E
100
AcDbEntity
  8
AM_0
100
AcDbLine
  6
BYLAYER
 10
-52
 20
-4.99999999999994
 11
52
 21
-5.00000000000006
  0
LINE
  5
31F
100
AcDbEntity
  8
AM_0
100
AcDbLine
  6
BYLAYER
 10
52
 20
-5.68E-14
 11
52
 21
-5.00000000000006
  0
ENDBLK
  5
320
100
AcDbEntity
  8
0
 67
     1
100
AcDbBlockEnd
  0
BLOCK
  5
321
100
AcDbEntity
  8
0
100
AcDbBlockBegin
  2
上枠_ZE8750
 70
    0
 10
0
 20
0
 30
0.0
  3
上枠_ZE8750
  1

  0
LINE
  5
322
100
AcDbEntity
  8
AM_0
100
AcDbLine
  6
BYLAYER
 10
86.499999999999
 20
-69.0000000000005
 11
86
 21
-69.5
  0
LINE
  5
323
100
AcDbEntity
  8
AM_0
100
AcDbLine
  6
BYLAYER
 10
15.5981338085566
 20
-82.5000000000001
 11
22.8500000000004
 21
-82.5000000000001
  0
LINE
  5
324
100
AcDbEntity
  8
AM_0
100
AcDbLine
  6
BYLAYER
 10
13.4499999999998
 20
-84.0000000000001
 11
21.1500000000006
 21
-84.0000000000001
  0
LINE
  5
325
100
AcDbEntity
  8
AM_0
100
AcDbLine
  6
BYLAYER
 10
12.9499999999997
 20
-99.0000000000001
 11
12.9499999999997
 21
-84.5
  0
LINE
  5
326
100
AcDbEntity
  8
AM_0
100
AcDbLine
  6
BYLAYER
 10
11.5500000000001
 20
-99.0000000000001
 11
11.5500000000001
 21
-84.5
  0
LINE
  5
327
100
AcDbEntity
  8
AM_0
100
AcDbLine
  6
BYLAYER
 10
2.34999999999945
 20
-97
 11
1.99999999999994
 21
-97
  0
LINE
  5
328
100
AcDbEntity
  8
AM_0
100
AcDbLine
  6
BYLAYER
 10
2.84999999999934
 20
-100
 11
-8.53E-14
 21
-100
  0
ARC
  5
329
100
AcDbEntity
  8
AM_0
100
AcDbCircle
  6
BYLAYER
 10
2.34999999999945
 20
-97.5000000000001
 40
0.5
100
AcDbArc
 50
0
 51
90
  0
LINE
  5
32A
100
AcDbEntity
  8
AM_0
100
AcDbLine
  6
BYLAYER
 10
3.3499999999994
 20
-99.0000000000001
 11
2.84999999999934
 21
-99.0000000000001
  0
LINE
  5
32B
100
AcDbEntity
  8
AM_0
100
AcDbLine
  6
BYLAYER
 10
2.84999999999934
 20
-100
 11
3.3499999999994
 21
-99.0000000000001
  0
LINE
  5
32C
100
AcDbEntity
  8
AM_0
100
AcDbLine
  6
BYLAYER
 10
2.84999999999934
 20
-99.0000000000001
 11
2.84999999999934
 21
-97.5000000000001
  0
LINE
  5
32D
100
AcDbEntity
  8
AM_0
100
AcDbLine
  6
BYLAYER
 10
10.75
 20
-100
 11
13.75
 21
-100
  0
LINE
  5
32E
100
AcDbEntity
  8
AM_0
100
AcDbLine
  6
BYLAYER
 10
12.9499999999997
 20
-99.0000000000001
 11
13.75
 21
-99.0000000000001
  0
LINE
  5
32F
100
AcDbEntity
  8
AM_0
100
AcDbLine
  6
BYLAYER
 10
10.75
 20
-99.0000000000001
 11
11.5500000000001
 21
-99.0000000000001
  0
LINE
  5
330
100
AcDbEntity
  8
AM_0
100
AcDbLine
  6
BYLAYER
 10
10.75
 20
-100
 11
10.75
 21
-99.0000000000001
  0
LINE
  5
331
100
AcDbEntity
  8
AM_0
100
AcDbLine
  6
BYLAYER
 10
13.75
 20
-100
 11
13.75
 21
-99.0000000000001
  0
LINE
  5
332
100
AcDbEntity
  8
AM_0
100
AcDbLine
  6
BYLAYER
 10
2.5
 20
-84.0000000000001
 11
11.0500000000001
 21
-84.0000000000001
  0
LINE
  5
333
100
AcDbEntity
  8
AM_0
100
AcDbLine
  6
BYLAYER
 10
2.99999999999989
 20
-82.5000000000001
 11
8.90186619144328
 21
-82.5000000000001
  0
ARC
  5
334
100
AcDbEntity
  8
AM_0
100
AcDbCircle
  6
BYLAYER
 10
14.1841020498878
 20
-78.3000369825722
 40
0.824999999999998
100
AcDbArc
 50
41.3135877630675
 51
221.313587763067
  0
ARC
  5
335
100
AcDbEntity
  8
AM_0
100
AcDbCircle
  6
BYLAYER
 10
13
 20
-81.2990381056766
 40
0.5
100
AcDbArc
 50
232.024312837048
 51
7.97568716295574
  0
ARC
  5
336
100
AcDbEntity
  8
AM_0
100
AcDbCircle
  6
BYLAYER
 10
11.5
 20
-81.2990381056766
 40
0.500000000000001
100
AcDbArc
 50
172.024312837044
 51
307.975687162952
  0
ARC
  5
337
100
AcDbEntity
  8
AM_0
100
AcDbCircle
  6
BYLAYER
 10
11.0500000000001
 20
-84.5
 40
0.5
100
AcDbArc
 50
0
 51
90
  0
ARC
  5
338
100
AcDbEntity
  8
AM_0
100
AcDbCircle
  6
BYLAYER
 10
13.4499999999998
 20
-84.5
 40
0.5
100
AcDbArc
 50
90
 51
180
  0
ARC
  5
339
100
AcDbEntity
  8
AM_0
100
AcDbCircle
  6
BYLAYER
 10
10.3158979501122
 20
-78.3000369825722
 40
0.825000000000002
100
AcDbArc
 50
318.686412236932
 51
138.686412236933
  0
ARC
  5
33A
100
AcDbEntity
  8
AM_0
100
AcDbCircle
  6
BYLAYER
 10
12.25
 20
-80
 40
1.75
100
AcDbArc
 50
138.686412236933
 51
164.641114419159
  0
ARC
  5
33B
100
AcDbEntity
  8
AM_0
100
AcDbCircle
  6
BYLAYER
 10
12.25
 20
-80
 40
1.75
100
AcDbArc
 50
195.358885580841
 51
224.641114419179
  0
ARC
  5
33C
100
AcDbEntity
  8
AM_0
100
AcDbCircle
  6
BYLAYER
 10
12.25
 20
-80
 40
3.4
100
AcDbArc
 50
138.686412236933
 51
210.851885986048
  0
ARC
  5
33D
100
AcDbEntity
  8
AM_0
100
AcDbCircle
  6
BYLAYER
 10
10.75
 20
-80
 40
0.5
100
AcDbArc
 50
112.024312837044
 51
247.975687162956
  0
ARC
  5
33E
100
AcDbEntity
  8
AM_0
100
AcDbCircle
  6
BYLAYER
 10
12.25
 20
-80
 40
1.74999999999999
100
AcDbArc
 50
255.358885580843
 51
284.641114419157
  0
ARC
  5
33F
100
AcDbEntity
  8
AM_0
100
AcDbCircle
  6
BYLAYER
 10
12.25
 20
-80
 40
1.75000000000001
100
AcDbArc
 50
15.3588855808412
 51
41.3135877630675
  0
ARC
  5
340
100
AcDbEntity
  8
AM_0
100
AcDbCircle
  6
BYLAYER
 10
12.25
 20
-80
 40
1.75
100
AcDbArc
 50
315.358885580821
 51
344.641114419159
  0
ARC
  5
341
100
AcDbEntity
  8
AM_0
100
AcDbCircle
  6
BYLAYER
 10
12.25
 20
-80
 40
3.4
100
AcDbArc
 50
329.148114013952
 51
41.3135877630675
  0
ARC
  5
342
100
AcDbEntity
  8
AM_0
100
AcDbCircle
  6
BYLAYER
 10
13.75
 20
-80
 40
0.500000000000002
100
AcDbArc
 50
292.024312837044
 51
67.9756871629563
  0
LINE
  5
343
100
AcDbEntity
  8
AM_0
100
AcDbLine
  6
BYLAYER
 10
21.6500000000005
 20
-99.0000000000001
 11
21.6500000000005
 21
-84.5
  0
LINE
  5
344
100
AcDbEntity
  8
AM_0
100
AcDbLine
  6
BYLAYER
 10
22.8500000000004
 20
-100
 11
22.8500000000004
 21
-82.5000000000001
  0
LINE
  5
345
100
AcDbEntity
  8
AM_0
100
AcDbLine
  6
BYLAYER
 10
21.6500000000005
 20
-100
 11
22.8500000000004
 21
-100
  0
LINE
  5
346
100
AcDbEntity
  8
AM_0
100
AcDbLine
  6
BYLAYER
 10
21.6500000000005
 20
-100
 11
21.1500000000006
 21
-99.0000000000001
  0
LINE
  5
347
100
AcDbEntity
  8
AM_0
100
AcDbLine
  6
BYLAYER
 10
21.1500000000006
 20
-99.0000000000001
 11
21.6500000000005
 21
-99.0000000000001
  0
ARC
  5
348
100
AcDbEntity
  8
AM_0
100
AcDbCircle
  6
BYLAYER
 10
21.1500000000006
 20
-84.5
 40
0.5
100
AcDbArc
 50
0
 51
90
  0
LINE
  5
349
100
AcDbEntity
  8
AM_0
100
AcDbLine
  6
BYLAYER
 10
76.3000000000002
 20
-80
 11
86.9641016151381
 21
-80
  0
LINE
  5
34A
100
AcDbEntity
  8
AM_0
100
AcDbLine
  6
BYLAYER
 10
74.8000000000002
 20
-78.5
 11
86
 21
-78.5
  0
LINE
  5
34B
100
AcDbEntity
  8
AM_0
100
AcDbLine
  6
BYLAYER
 10
86
 20
-78.5
 11
86
 21
-69.5
  0
LINE
  5
34C
100
AcDbEntity
  8
AM_0
100
AcDbLine
  6
BYLAYER
 10
90
 20
0
 11
-8.53E-14
 21
0
  0
LINE
  5
34D
100
AcDbEntity
  8
AM_0
100
AcDbLine
  6
BYLAYER
 10
2.00000000000045
 20
-13.5
 11
8.64999999987538
 21
-13.5
  0
LINE
  5
34E
100
AcDbEntity
  8
AM_0
100
AcDbLine
  6
BYLAYER
 10
2.99999999999989
 20
-15
 11
86.9999999999991
 21
-15
  0
LINE
  5
34F
100
AcDbEntity
  8
AM_0
100
AcDbLine
  6
BYLAYER
 10
88.0000000000004
 20
-1.5
 11
2.00000000000045
 21
-1.5
  0
ARC
  5
350
100
AcDbEntity
  8
AM_0
100
AcDbCircle
  6
BYLAYER
 10
66
 20
-11.5
 40
1.74999999999999
100
AcDbArc
 50
255.358885580843
 51
284.641114419157
  0
LINE
  5
351
100
AcDbEntity
  8
AM_0
100
AcDbLine
  6
BYLAYER
 10
15.8500000001239
 20
-13.5
 11
62.3999999998759
 21
-13.5
  0
ARC
  5
352
100
AcDbEntity
  8
AM_0
100
AcDbCircle
  6
BYLAYER
 10
13
 20
-12.7990381056766
 40
0.5
100
AcDbArc
 50
232.024312837048
 51
7.97568716295574
  0
ARC
  5
353
100
AcDbEntity
  8
AM_0
100
AcDbCircle
  6
BYLAYER
 10
10.3158979501122
 20
-9.80003698257224
 40
0.825000000000002
100
AcDbArc
 50
318.686412236932
 51
138.686412236933
  0
ARC
  5
354
100
AcDbEntity
  8
AM_0
100
AcDbCircle
  6
BYLAYER
 10
12.25
 20
-11.5
 40
3.4
100
AcDbArc
 50
138.686412236933
 51
202.619864947319
  0
ARC
  5
355
100
AcDbEntity
  8
AM_0
100
AcDbCircle
  6
BYLAYER
 10
10.75
 20
-11.5
 40
0.5
100
AcDbArc
 50
112.024312837044
 51
247.975687162956
  0
ARC
  5
356
100
AcDbEntity
  8
AM_0
100
AcDbCircle
  6
BYLAYER
 10
12.25
 20
-11.5
 40
1.75
100
AcDbArc
 50
138.686412236933
 51
164.641114419159
  0
ARC
  5
357
100
AcDbEntity
  8
AM_0
100
AcDbCircle
  6
BYLAYER
 10
12.25
 20
-11.5
 40
1.74999999999999
100
AcDbArc
 50
255.358885580843
 51
284.641114419157
  0
ARC
  5
358
100
AcDbEntity
  8
AM_0
100
AcDbCircle
  6
BYLAYER
 10
12.25
 20
-11.5
 40
1.75
100
AcDbArc
 50
195.358885580841
 51
224.641114419179
  0
ARC
  5
359
100
AcDbEntity
  8
AM_0
100
AcDbCircle
  6
BYLAYER
 10
11.5
 20
-12.7990381056766
 40
0.500000000000001
100
AcDbArc
 50
172.024312837044
 51
307.975687162952
  0
ARC
  5
35A
100
AcDbEntity
  8
AM_0
100
AcDbCircle
  6
BYLAYER
 10
14.1841020498878
 20
-9.80003698257224
 40
0.824999999999998
100
AcDbArc
 50
41.3135877630675
 51
221.313587763067
  0
ARC
  5
35B
100
AcDbEntity
  8
AM_0
100
AcDbCircle
  6
BYLAYER
 10
12.25
 20
-11.5
 40
1.75000000000001
100
AcDbArc
 50
15.3588855808412
 51
41.3135877630675
  0
ARC
  5
35C
100
AcDbEntity
  8
AM_0
100
AcDbCircle
  6
BYLAYER
 10
12.25
 20
-11.5
 40
1.75
100
AcDbArc
 50
315.358885580821
 51
344.641114419159
  0
ARC
  5
35D
100
AcDbEntity
  8
AM_0
100
AcDbCircle
  6
BYLAYER
 10
13.75
 20
-11.5
 40
0.500000000000002
100
AcDbArc
 50
292.024312837044
 51
67.9756871629563
  0
ARC
  5
35E
100
AcDbEntity
  8
AM_0
100
AcDbCircle
  6
BYLAYER
 10
66
 20
-11.5
 40
3.4
100
AcDbArc
 50
138.686412236933
 51
202.619864947339
  0
ARC
  5
35F
100
AcDbEntity
  8
AM_0
100
AcDbCircle
  6
BYLAYER
 10
66
 20
-11.5
 40
1.75
100
AcDbArc
 50
138.686412236933
 51
164.641114419159
  0
ARC
  5
360
100
AcDbEntity
  8
AM_0
100
AcDbCircle
  6
BYLAYER
 10
66
 20
-11.5
 40
1.75
100
AcDbArc
 50
195.358885580841
 51
224.641114419179
  0
ARC
  5
361
100
AcDbEntity
  8
AM_0
100
AcDbCircle
  6
BYLAYER
 10
65.25
 20
-12.7990381056766
 40
0.500000000000001
100
AcDbArc
 50
172.024312837044
 51
307.975687162952
  0
ARC
  5
362
100
AcDbEntity
  8
AM_0
100
AcDbCircle
  6
BYLAYER
 10
64.5
 20
-11.5
 40
0.5
100
AcDbArc
 50
112.024312837044
 51
247.975687162956
  0
ARC
  5
363
100
AcDbEntity
  8
AM_0
100
AcDbCircle
  6
BYLAYER
 10
64.0658979501131
 20
-9.80003698257224
 40
0.825000000000002
100
AcDbArc
 50
318.686412236932
 51
138.686412236933
  0
LINE
  5
364
100
AcDbEntity
  8
AM_0
100
AcDbLine
  6
BYLAYER
 10
69.6000000001241
 20
-13.4999999999998
 11
88.0000000000004
 21
-13.4999999999998
  0
ARC
  5
365
100
AcDbEntity
  8
AM_0
100
AcDbCircle
  6
BYLAYER
 10
66
 20
-11.5
 40
3.4
100
AcDbArc
 50
337.380135052661
 51
41.3135877630675
  0
ARC
  5
366
100
AcDbEntity
  8
AM_0
100
AcDbCircle
  6
BYLAYER
 10
67.9341020498869
 20
-9.80003698257224
 40
0.824999999999998
100
AcDbArc
 50
41.3135877630675
 51
221.313587763067
  0
ARC
  5
367
100
AcDbEntity
  8
AM_0
100
AcDbCircle
  6
BYLAYER
 10
66
 20
-11.5
 40
1.75000000000001
100
AcDbArc
 50
15.3588855808412
 51
41.3135877630675
  0
ARC
  5
368
100
AcDbEntity
  8
AM_0
100
AcDbCircle
  6
BYLAYER
 10
66
 20
-11.5
 40
1.75
100
AcDbArc
 50
315.358885580821
 51
344.641114419159
  0
ARC
  5
369
100
AcDbEntity
  8
AM_0
100
AcDbCircle
  6
BYLAYER
 10
66.75
 20
-12.7990381056766
 40
0.5
100
AcDbArc
 50
232.024312837048
 51
7.97568716295574
  0
ARC
  5
36A
100
AcDbEntity
  8
AM_0
100
AcDbCircle
  6
BYLAYER
 10
67.5
 20
-11.5
 40
0.500000000000002
100
AcDbArc
 50
292.024312837044
 51
67.9756871629563
  0
LINE
  5
36B
100
AcDbEntity
  8
AM_0
100
AcDbLine
  6
BYLAYER
 10
87.999999999999
 20
-16
 11
87.999999999999
 21
-63.0000000000005
  0
LINE
  5
36C
100
AcDbEntity
  8
AM_0
100
AcDbLine
  6
BYLAYER
 10
86.499999999999
 20
-64.0000000000006
 11
86.499999999999
 21
-69.0000000000005
  0
ARC
  5
36D
100
AcDbEntity
  8
AM_0
100
AcDbCircle
  6
BYLAYER
 10
86.9999999999991
 20
-63.0000000000005
 40
1
100
AcDbArc
 50
270
 51
0
  0
LINE
  5
36E
100
AcDbEntity
  8
AM_0
100
AcDbLine
  6
BYLAYER
 10
86.9999999999991
 20
-64.0000000000006
 11
86.499999999999
 21
-64.0000000000006
  0
ARC
  5
36F
100
AcDbEntity
  8
AM_0
100
AcDbCircle
  6
BYLAYER
 10
86.9999999999991
 20
-16
 40
1
100
AcDbArc
 50
0
 51
90
  0
LINE
  5
370
100
AcDbEntity
  8
AM_0
100
AcDbLine
  6
BYLAYER
 10
90
 20
-66.0000000000002
 11
88.4999999999999
 21
-66.0000000000002
  0
LINE
  5
371
100
AcDbEntity
  8
AM_0
100
AcDbLine
  6
BYLAYER
 10
90
 20
-66.0000000000002
 11
90
 21
-5.68E-14
  0
LINE
  5
372
100
AcDbEntity
  8
AM_0
100
AcDbLine
  6
BYLAYER
 10
88.4999999999999
 20
-66.0000000000002
 11
88.4999999999999
 21
-74.0417424305047
  0
LINE
  5
373
100
AcDbEntity
  8
AM_0
100
AcDbLine
  6
BYLAYER
 10
88.4999999999999
 20
-82
 11
87.5
 21
-82
  0
ARC
  5
374
100
AcDbEntity
  8
AM_0
100
AcDbCircle
  6
BYLAYER
 10
88.6999999999998
 20
-74.5
 40
0.5
100
AcDbArc
 50
113.578178478178
 51
246.421821521822
  0
LINE
  5
375
100
AcDbEntity
  8
AM_0
100
AcDbLine
  6
BYLAYER
 10
88.4999999999999
 20
-74.9582575694958
 11
88.4999999999999
 21
-82
  0
LINE
  5
376
100
AcDbEntity
  8
AM_0
100
AcDbLine
  6
BYLAYER
 10
74.8000000000002
 20
-91.0000000004311
 11
74.8000000000002
 21
-78.5
  0
LINE
  5
377
100
AcDbEntity
  8
AM_0
100
AcDbLine
  6
BYLAYER
 10
76.3000000000002
 20
-83.6000000004315
 11
76.3000000000002
 21
-80
  0
LINE
  5
378
100
AcDbEntity
  8
AM_0
100
AcDbLine
  6
BYLAYER
 10
75.8000000000001
 20
-92.0000000004311
 11
78.5
 21
-92.0000000004311
  0
LINE
  5
379
100
AcDbEntity
  8
AM_0
100
AcDbLine
  6
BYLAYER
 10
77.8000000000002
 20
-84.8000000004313
 11
76.3000000000002
 21
-84.8000000004313
  0
LINE
  5
37A
100
AcDbEntity
  8
AM_0
100
AcDbLine
  6
BYLAYER
 10
78.5
 20
-83.6000000004315
 11
76.3000000000002
 21
-83.6000000004315
  0
LINE
  5
37B
100
AcDbEntity
  8
AM_0
100
AcDbLine
  6
BYLAYER
 10
76.3000000000002
 20
-90.8000000004313
 11
77.8000000000002
 21
-90.8000000004313
  0
LINE
  5
37C
100
AcDbEntity
  8
AM_0
100
AcDbLine
  6
BYLAYER
 10
76.3000000000002
 20
-90.8000000004313
 11
76.3000000000002
 21
-84.8000000004313
  0
ARC
  5
37D
100
AcDbEntity
  8
AM_0
100
AcDbCircle
  6
BYLAYER
 10
75.8000000000001
 20
-91.0000000004311
 40
1
100
AcDbArc
 50
180
 51
270
  0
ARC
  5
37E
100
AcDbEntity
  8
AM_0
100
AcDbCircle
  6
BYLAYER
 10
78.5
 20
-91.5000000004312
 40
0.5
100
AcDbArc
 50
270
 51
0
  0
LINE
  5
37F
100
AcDbEntity
  8
AM_0
100
AcDbLine
  6
BYLAYER
 10
79
 20
-91.5000000004312
 11
79
 21
-89.8000000004313
  0
ARC
  5
380
100
AcDbEntity
  8
AM_0
100
AcDbCircle
  6
BYLAYER
 10
78.5
 20
-89.8000000004313
 40
0.5
100
AcDbArc
 50
0
 51
90
  0
LINE
  5
381
100
AcDbEntity
  8
AM_0
100
AcDbLine
  6
BYLAYER
 10
77.8000000000002
 20
-90.8000000004313
 11
77.8000000000002
 21
-89.3000000004313
  0
LINE
  5
382
100
AcDbEntity
  8
AM_0
100
AcDbLine
  6
BYLAYER
 10
77.8000000000002
 20
-89.3000000004313
 11
78.5
 21
-89.3000000004313
  0
ARC
  5
383
100
AcDbEntity
  8
AM_0
100
AcDbCircle
  6
BYLAYER
 10
78.5
 20
-84.1000000004315
 40
0.5
100
AcDbArc
 50
0
 51
90
  0
ARC
  5
384
100
AcDbEntity
  8
AM_0
100
AcDbCircle
  6
BYLAYER
 10
78.5
 20
-85.8000000004313
 40
0.5
100
AcDbArc
 50
270
 51
0
  0
LINE
  5
385
100
AcDbEntity
  8
AM_0
100
AcDbLine
  6
BYLAYER
 10
79
 20
-84.1000000004315
 11
79
 21
-85.8000000004313
  0
LINE
  5
386
100
AcDbEntity
  8
AM_0
100
AcDbLine
  6
BYLAYER
 10
77.8000000000002
 20
-84.8000000004313
 11
77.8000000000002
 21
-86.3000000004313
  0
LINE
  5
387
100
AcDbEntity
  8
AM_0
100
AcDbLine
  6
BYLAYER
 10
77.8000000000002
 20
-86.3000000004313
 11
78.5
 21
-86.3000000004313
  0
ARC
  5
388
100
AcDbEntity
  8
AM_0
100
AcDbCircle
  6
BYLAYER
 10
8.90186619144328
 20
-82
 40
0.5
100
AcDbArc
 50
270
 51
30.8518859860484
  0
ARC
  5
389
100
AcDbEntity
  8
AM_0
100
AcDbCircle
  6
BYLAYER
 10
15.5981338085566
 20
-82
 40
0.5
100
AcDbArc
 50
149.148114013952
 51
270
  0
ARC
  5
38A
100
AcDbEntity
  8
AM_0
100
AcDbCircle
  6
BYLAYER
 10
12.25
 20
-11.5
 40
3.4
100
AcDbArc
 50
337.380135052661
 51
41.3135877630675
  0
LINE
  5
38B
100
AcDbEntity
  8
AM_0
100
AcDbLine
  6
BYLAYER
 10
87.5
 20
-82
 11
86.9641016151381
 21
-80
  0
LINE
  5
38C
100
AcDbEntity
  8
AM_0
100
AcDbLine
  6
BYLAYER
 10
1.99999999999994
 20
-81.5
 11
1.99999999999994
 21
-16
  0
ARC
  5
38D
100
AcDbEntity
  8
AM_0
100
AcDbCircle
  6
BYLAYER
 10
2.99999999999989
 20
-16
 40
1
100
AcDbArc
 50
90
 51
180
  0
ARC
  5
38E
100
AcDbEntity
  8
AM_0
100
AcDbCircle
  6
BYLAYER
 10
2.99999999999989
 20
-81.5
 40
1
100
AcDbArc
 50
180
 51
270
  0
LINE
  5
38F
100
AcDbEntity
  8
AM_0
100
AcDbLine
  6
BYLAYER
 10
1.99999999999994
 20
-97
 11
1.99999999999994
 21
-84.5
  0
ARC
  5
390
100
AcDbEntity
  8
AM_0
100
AcDbCircle
  6
BYLAYER
 10
2.5
 20
-84.5
 40
0.5
100
AcDbArc
 50
90
 51
180
  0
ARC
  5
391
100
AcDbEntity
  8
AM_0
100
AcDbCircle
  6
BYLAYER
 10
2.00000000000045
 20
-2
 40
0.5
100
AcDbArc
 50
90
 51
180
  0
ARC
  5
392
100
AcDbEntity
  8
AM_0
100
AcDbCircle
  6
BYLAYER
 10
2.00000000000045
 20
-13
 40
0.5
100
AcDbArc
 50
180
 51
270
  0
ARC
  5
393
100
AcDbEntity
  8
AM_0
100
AcDbCircle
  6
BYLAYER
 10
8.64999999987538
 20
-12.9999999999998
 40
0.5
100
AcDbArc
 50
270
 51
22.619864947339
  0
ARC
  5
394
100
AcDbEntity
  8
AM_0
100
AcDbCircle
  6
BYLAYER
 10
62.3999999998759
 20
-13
 40
0.5
100
AcDbArc
 50
270
 51
22.619864947339
  0
ARC
  5
395
100
AcDbEntity
  8
AM_0
100
AcDbCircle
  6
BYLAYER
 10
69.6000000001241
 20
-12.9999999999998
 40
0.5
100
AcDbArc
 50
157.380135052661
 51
270
  0
ARC
  5
396
100
AcDbEntity
  8
AM_0
100
AcDbCircle
  6
BYLAYER
 10
88.0000000000004
 20
-12.9999999999998
 40
0.5
100
AcDbArc
 50
270
 51
0
  0
ARC
  5
397
100
AcDbEntity
  8
AM_0
100
AcDbCircle
  6
BYLAYER
 10
88.0000000000004
 20
-2
 40
0.5
100
AcDbArc
 50
0
 51
90
  0
ARC
  5
398
100
AcDbEntity
  8
AM_0
100
AcDbCircle
  6
BYLAYER
 10
15.8500000001239
 20
-13
 40
0.5
100
AcDbArc
 50
157.380135052661
 51
270
  0
LINE
  5
399
100
AcDbEntity
  8
AM_0
100
AcDbLine
  6
BYLAYER
 10
-8.53E-14
 20
-100
 11
-8.53E-14
 21
0
  0
LINE
  5
39A
100
AcDbEntity
  8
AM_0
100
AcDbLine
  6
BYLAYER
 10
88.5000000000004
 20
-2
 11
88.5000000000005
 21
-12.9999999999998
  0
LINE
  5
39B
100
AcDbEntity
  8
AM_0
100
AcDbLine
  6
BYLAYER
 10
1.5000000000004
 20
-13
 11
1.5000000000004
 21
-2
  0
ENDBLK
  5
39C
100
AcDbEntity
  8
0
 67
     1
100
AcDbBlockEnd
  0
BLOCK
  5
39D
100
AcDbEntity
  8
0
100
AcDbBlockBegin
  2
柱キャップ_正
 70
    0
 10
0
 20
0
 30
0.0
  3
柱キャップ_正
  1

  0
LINE
  5
39E
100
AcDbEntity
  8
AM_0
100
AcDbLine
  6
BYLAYER
 10
46.9462198747187
 20
2
 11
-46.9462198747187
 21
2.00000000000006
  0
ARC
  5
39F
100
AcDbEntity
  8
AM_0
100
AcDbCircle
  6
BYLAYER
 10
46.9462198747187
 20
1
 40
1
100
AcDbArc
 50
2.99999999999037
 51
90
  0
ARC
  5
3A0
100
AcDbEntity
  8
AM_0
100
AcDbCircle
  6
BYLAYER
 10
-46.9462198747187
 20
1
 40
1
100
AcDbArc
 50
90
 51
177.00000000001
  0
LINE
  5
3A1
100
AcDbEntity
  8
AM_0
100
AcDbLine
  6
BYLAYER
 10
48
 20
0
 11
47.9448494094741
 21
1.05233595624293
  0
LINE
  5
3A2
100
AcDbEntity
  8
AM_0
100
AcDbLine
  6
BYLAYER
 10
-48
 20
0
 11
-47.9448494094741
 21
1.05233595624293
  0
LINE
  5
3A3
100
AcDbEntity
  8
AM_0
100
AcDbLine
  6
BYLAYER
 10
48
 20
0
 11
48
 21
-5
  0
LINE
  5
3A4
100
AcDbEntity
  8
AM_0
100
AcDbLine
  6
BYLAYER
 10
48
 20
-5
 11
-48
 21
-4.99999999999994
  0
LINE
  5
3A5
100
AcDbEntity
  8
AM_0
100
AcDbLine
  6
BYLAYER
 10
-48
 20
-4.99999999999994
 11
-48
 21
0
  0
ENDBLK
  5
3A6
100
AcDbEntity
  8
0
 67
     1
100
AcDbBlockEnd
  0
BLOCK
  5
3A7
100
AcDbEntity
  8
0
100
AcDbBlockBegin
  2
プッシュ錠PV
 70
    0
 10
0
 20
0
 30
0.0
  3
プッシュ錠PV
  1

  0
CIRCLE
  5
3A8
100
AcDbEntity
  8
AM_0
100
AcDbCircle
  6
BYLAYER
 10
-0.0002346713617953
 20
-0.359999570822026
 40
1
  0
CIRCLE
  5
3A9
100
AcDbEntity
  8
AM_0
100
AcDbCircle
  6
BYLAYER
 10
0
 20
0
 40
1.9
  0
LINE
  5
3AA
100
AcDbEntity
  8
AM_0
100
AcDbLine
  6
BYLAYER
 10
-0.380308320362019
 20
-0.159751771364768
 11
0.979510611256273
 21
-0.159751771364768
  0
LINE
  5
3AB
100
AcDbEntity
  8
AM_0
100
AcDbLine
  6
BYLAYER
 10
-0.380569066574935
 20
-0.559751686379059
 11
0.979611792289688
 21
-0.559751686379059
  0
LINE
  5
3AC
100
AcDbEntity
  8
AM_0
100
AcDbLine
  6
BYLAYER
 10
-0.380569066574935
 20
-0.559751686379059
 11
-0.380308320362019
 21
-0.159751771364768
  0
ENDBLK
  5
3AD
100
AcDbEntity
  8
0
 67
     1
100
AcDbBlockEnd
  0
BLOCK
  5
3AE
100
AcDbEntity
  8
0
100
AcDbBlockBegin
  2
XR1156_SV_AM0
 70
    0
 10
0
 20
0
 30
0.0
  3
XR1156_SV_AM0
  1

  0
LINE
  5
3AF
100
AcDbEntity
  8
AM_0
100
AcDbLine
  6
BYLAYER
 10
0
 20
-8.50000000000023
 11
10
 21
-8.50000000000023
  0
LINE
  5
3B0
100
AcDbEntity
  8
AM_0
100
AcDbLine
  6
BYLAYER
 10
10
 20
3.99999999999932
 11
3.5
 21
3.99999999999932
  0
LINE
  5
3B1
100
AcDbEntity
  8
AM_0
100
AcDbLine
  6
BYLAYER
 10
3.5
 20
3.99999999999932
 11
3.5
 21
-6.47775269938347
  0
LINE
  5
3B2
100
AcDbEntity
  8
AM_0
100
AcDbLine
  6
BYLAYER
 10
0
 20
3.99999999999932
 11
0
 21
-3.0000000004311
  0
ARC
  5
3B3
100
AcDbEntity
  8
AM_0
100
AcDbCircle
  6
BYLAYER
 10
4.547E-13
 20
-3.50000000043155
 40
0.5
100
AcDbArc
 50
269.999999999848
 51
90.000000000152
  0
LINE
  5
3B4
100
AcDbEntity
  8
AM_0
100
AcDbLine
  6
BYLAYER
 10
0
 20
-4.00000000000023
 11
0
 21
-8.50000000000023
  0
LINE
  5
3B5
100
AcDbEntity
  8
AM_0
100
AcDbLine
  6
BYLAYER
 10
10
 20
-8.50000000000023
 11
10
 21
3.99999999999932
  0
LINE
  5
3B6
100
AcDbEntity
  8
AM_0
100
AcDbLine
  6
BYLAYER
 10
1.73589838486171
 20
1.99999999999977
 11
3.5
 21
1.99999999999977
  0
LINE
  5
3B7
100
AcDbEntity
  8
AM_0
100
AcDbLine
  6
BYLAYER
 10
0
 20
-4.52224730061653
 11
3.5
 21
-4.52224730061653
  0
LINE
  5
3B8
100
AcDbEntity
  8
AM_0
100
AcDbLine
  6
BYLAYER
 10
0
 20
-6.47775269938347
 11
3.5
 21
-6.47775269938347
  0
LINE
  5
3B9
100
AcDbEntity
  8
AM_0
100
AcDbLine
  6
BYLAYER
 10
1.19999999999985
 20
3.99999999999932
 11
0
 21
3.99999999999932
  0
LINE
  5
3BA
100
AcDbEntity
  8
AM_0
100
AcDbLine
  6
BYLAYER
 10
1.19999999999985
 20
3.99999999999932
 11
1.73589838486171
 21
1.99999999999977
  0
ENDBLK
  5
3BB
100
AcDbEntity
  8
0
 67
     1
100
AcDbBlockEnd
  0
BLOCK
  5
3BC
100
AcDbEntity
  8
0
100
AcDbBlockBegin
  2
基礎_600□650正
 70
    0
 10
0
 20
0
 30
0.0
  3
基礎_600□650正
  1

  0
LINE
  5
3BD
100
AcDbEntity
  8
CONT_S_2
100
AcDbLine
  6
BYLAYER
 10
325
 20
700
 11
325
 21
100
  0
LINE
  5
3BE
100
AcDbEntity
  8
CONT_S_2
100
AcDbLine
  6
BYLAYER
 10
-325
 20
700
 11
-325
 21
100
  0
LINE
  5
3BF
100
AcDbEntity
  8
CONT_S_2
100
AcDbLine
  6
BYLAYER
 10
-1.9839793822E-5
 20
100
 11
-225.000019839794
 21
100
  0
LINE
  5
3C0
100
AcDbEntity
  8
CONT_S_2
100
AcDbLine
  6
BYLAYER
 10
-45.000019839792
 20
639.719006886761
 11
-325
 21
306.028024604558
  0
LINE
  5
3C1
100
AcDbEntity
  8
CONT_S_2
100
AcDbLine
  6
BYLAYER
 10
-45.000019839792
 20
624.161768618158
 11
-325
 21
290.470786335956
  0
LINE
  5
3C2
100
AcDbEntity
  8
CONT_S_2
100
AcDbLine
  6
BYLAYER
 10
-45.000019839792
 20
655.27624515537
 11
-325
 21
321.585262873159
  0
LINE
  5
3C3
100
AcDbEntity
  8
CONT_S_2
100
AcDbLine
  6
BYLAYER
 10
118.392611031812
 20
700
 11
44.9999801602062
 21
612.534068488831
  0
LINE
  5
3C4
100
AcDbEntity
  8
CONT_S_2
100
AcDbLine
  6
BYLAYER
 10
-45.000019839792
 20
505.276245155365
 11
-325
 21
171.585262873162
  0
LINE
  5
3C5
100
AcDbEntity
  8
CONT_S_2
100
AcDbLine
  6
BYLAYER
 10
144.500756818457
 20
700
 11
44.9999801602062
 21
581.419591951625
  0
LINE
  5
3C6
100
AcDbEntity
  8
CONT_S_2
100
AcDbLine
  6
BYLAYER
 10
-45.000019839792
 20
474.161768618159
 11
-325
 21
140.470786335955
  0
LINE
  5
3C7
100
AcDbEntity
  8
CONT_S_2
100
AcDbLine
  6
BYLAYER
 10
131.446683925134
 20
700
 11
44.9999801602062
 21
596.97683022023
  0
LINE
  5
3C8
100
AcDbEntity
  8
CONT_S_2
100
AcDbLine
  6
BYLAYER
 10
-45.000019839792
 20
489.719006886763
 11
-325
 21
156.028024604558
  0
LINE
  5
3C9
100
AcDbEntity
  8
CONT_S_2
100
AcDbLine
  6
BYLAYER
 10
270.365701495062
 20
700
 11
44.9999801602062
 21
431.419591951625
  0
LINE
  5
3CA
100
AcDbEntity
  8
CONT_S_2
100
AcDbLine
  6
BYLAYER
 10
257.311628601734
 20
700
 11
44.9999801602062
 21
446.976830220229
  0
LINE
  5
3CB
100
AcDbEntity
  8
CONT_S_2
100
AcDbLine
  6
BYLAYER
 10
244.257555708415
 20
700
 11
44.9999801602062
 21
462.534068488831
  0
LINE
  5
3CC
100
AcDbEntity
  8
CONT_S_2
100
AcDbLine
  6
BYLAYER
 10
-45.000019839792
 20
355.276245155364
 11
-259.202222998001
 21
100
  0
LINE
  5
3CD
100
AcDbEntity
  8
CONT_S_2
100
AcDbLine
  6
BYLAYER
 10
-45.000019839792
 20
339.719006886763
 11
-246.148150104678
 21
100
  0
LINE
  5
3CE
100
AcDbEntity
  8
CONT_S_2
100
AcDbLine
  6
BYLAYER
 10
-45.000019839792
 20
324.161768618159
 11
-233.094077211355
 21
100
  0
LINE
  5
3CF
100
AcDbEntity
  8
CONT_S_2
100
AcDbLine
  6
BYLAYER
 10
325
 20
615.110621522121
 11
44.9999801602062
 21
281.419591951625
  0
LINE
  5
3D0
100
AcDbEntity
  8
CONT_S_2
100
AcDbLine
  6
BYLAYER
 10
325
 20
630.667859790721
 11
44.9999801602062
 21
296.976830220229
  0
LINE
  5
3D1
100
AcDbEntity
  8
CONT_S_2
100
AcDbLine
  6
BYLAYER
 10
325
 20
646.225098059326
 11
44.9999801602062
 21
312.534068488831
  0
LINE
  5
3D2
100
AcDbEntity
  8
CONT_S_2
100
AcDbLine
  6
BYLAYER
 10
-45.000019839792
 20
174.161768618159
 11
-107.22913253475
 21
100
  0
LINE
  5
3D3
100
AcDbEntity
  8
CONT_S_2
100
AcDbLine
  6
BYLAYER
 10
-45.000019839792
 20
189.719006886763
 11
-120.283205428073
 21
100
  0
LINE
  5
3D4
100
AcDbEntity
  8
CONT_S_2
100
AcDbLine
  6
BYLAYER
 10
-45.000019839792
 20
205.276245155365
 11
-133.337278321396
 21
100
  0
LINE
  5
3D5
100
AcDbEntity
  8
CONT_S_2
100
AcDbLine
  6
BYLAYER
 10
325
 20
465.110621522121
 11
44.9999801602062
 21
131.419591951625
  0
LINE
  5
3D6
100
AcDbEntity
  8
CONT_S_2
100
AcDbLine
  6
BYLAYER
 10
325
 20
480.667859790726
 11
44.9999801602062
 21
146.976830220229
  0
LINE
  5
3D7
100
AcDbEntity
  8
CONT_S_2
100
AcDbLine
  6
BYLAYER
 10
325
 20
496.225098059325
 11
44.9999801602062
 21
162.534068488831
  0
LINE
  5
3D8
100
AcDbEntity
  8
CONT_S_2
100
AcDbLine
  6
BYLAYER
 10
325
 20
330.667859790724
 11
131.446683925133
 21
100
  0
LINE
  5
3D9
100
AcDbEntity
  8
CONT_S_2
100
AcDbLine
  6
BYLAYER
 10
325
 20
346.225098059325
 11
118.392611031812
 21
100
  0
LINE
  5
3DA
100
AcDbEntity
  8
CONT_S_2
100
AcDbLine
  6
BYLAYER
 10
325
 20
315.110621522123
 11
144.500756818457
 21
100
  0
LINE
  5
3DB
100
AcDbEntity
  8
CONT_S_2
100
AcDbLine
  6
BYLAYER
 10
-325
 20
100
 11
325
 21
99.9999999999991
  0
LINE
  5
3DC
100
AcDbEntity
  8
CONT_S_2
100
AcDbLine
  6
BYLAYER
 10
-325
 20
-9.095E-13
 11
325
 21
0
  0
LINE
  5
3DD
100
AcDbEntity
  8
CONT_S_2
100
AcDbLine
  6
BYLAYER
 10
-183.303782193165
 20
18.1533813476763
 11
-178.43966170979
 21
0
  0
LINE
  5
3DE
100
AcDbEntity
  8
CONT_S_2
100
AcDbLine
  6
BYLAYER
 10
-136.049576571964
 20
100.000190734875
 11
-193.784625873523
 21
0
  0
LINE
  5
3DF
100
AcDbEntity
  8
CONT_S_2
100
AcDbLine
  6
BYLAYER
 10
-151.395039876603
 20
100.000190734875
 11
-146.530824025753
 21
81.8468093872243
  0
LINE
  5
3E0
100
AcDbEntity
  8
CONT_S_2
100
AcDbLine
  6
BYLAYER
 10
-325
 20
100
 11
-325
 21
0
  0
LINE
  5
3E1
100
AcDbEntity
  8
CONT_S_2
100
AcDbLine
  6
BYLAYER
 10
-114.378758243116
 20
100.000190734875
 11
-109.514542392266
 21
81.8468093872243
  0
LINE
  5
3E2
100
AcDbEntity
  8
CONT_S_2
100
AcDbLine
  6
BYLAYER
 10
-99.0332949384792
 20
100.000190734875
 11
-156.768344240034
 21
0
  0
LINE
  5
3E3
100
AcDbEntity
  8
CONT_S_2
100
AcDbLine
  6
BYLAYER
 10
-146.28750055968
 20
18.1533813476763
 11
-141.423380076303
 21
0
  0
LINE
  5
3E4
100
AcDbEntity
  8
CONT_S_2
100
AcDbLine
  6
BYLAYER
 10
-25.0007316715055
 20
100.000190734875
 11
-82.7357809730602
 21
0
  0
LINE
  5
3E5
100
AcDbEntity
  8
CONT_S_2
100
AcDbLine
  6
BYLAYER
 10
-40.3461949761422
 20
100.000190734875
 11
-35.4819791252921
 21
81.8468093872243
  0
LINE
  5
3E6
100
AcDbEntity
  8
CONT_S_2
100
AcDbLine
  6
BYLAYER
 10
-77.3624766096291
 20
100.000190734875
 11
-72.498260758779
 21
81.8468093872243
  0
LINE
  5
3E7
100
AcDbEntity
  8
CONT_S_2
100
AcDbLine
  6
BYLAYER
 10
-62.0170133049905
 20
100.000190734875
 11
-119.752062606549
 21
0
  0
LINE
  5
3E8
100
AcDbEntity
  8
CONT_S_2
100
AcDbLine
  6
BYLAYER
 10
-72.254937292706
 20
18.1533813476763
 11
-67.3908168093294
 21
0
  0
LINE
  5
3E9
100
AcDbEntity
  8
CONT_S_2
100
AcDbLine
  6
BYLAYER
 10
-109.271218926191
 20
18.1533813476763
 11
-104.407098442816
 21
0
  0
LINE
  5
3EA
100
AcDbEntity
  8
CONT_S_2
100
AcDbLine
  6
BYLAYER
 10
123.064504983107
 20
100.000381469749
 11
65.329455681549
 21
0.0001907348751047
  0
LINE
  5
3EB
100
AcDbEntity
  8
CONT_S_2
100
AcDbLine
  6
BYLAYER
 10
86.0482233496186
 20
100.000381469749
 11
28.313174048064
 21
0.0001907348751047
  0
LINE
  5
3EC
100
AcDbEntity
  8
CONT_S_2
100
AcDbLine
  6
BYLAYER
 10
70.7027600449819
 20
100.000381469749
 11
75.566975895832
 21
81.8470001220994
  0
LINE
  5
3ED
100
AcDbEntity
  8
CONT_S_2
100
AcDbLine
  6
BYLAYER
 10
49.0319417161336
 20
100.000381469749
 11
-8.70310758542473
 21
0.0001907348751047
  0
LINE
  5
3EE
100
AcDbEntity
  8
CONT_S_2
100
AcDbLine
  6
BYLAYER
 10
33.6864784114951
 20
100.000381469749
 11
38.5506942623451
 21
81.8470001220994
  0
LINE
  5
3EF
100
AcDbEntity
  8
CONT_S_2
100
AcDbLine
  6
BYLAYER
 10
-3.32980322199182
 20
100.000381469749
 11
1.53441262885826
 21
81.8470001220994
  0
LINE
  5
3F0
100
AcDbEntity
  8
CONT_S_2
100
AcDbLine
  6
BYLAYER
 10
12.0156600826449
 20
100.000381469749
 11
-45.7193892189098
 21
0.0001907348751047
  0
LINE
  5
3F1
100
AcDbEntity
  8
CONT_S_2
100
AcDbLine
  6
BYLAYER
 10
107.719041678469
 20
100.000381469749
 11
112.583257529319
 21
81.8470001220994
  0
LINE
  5
3F2
100
AcDbEntity
  8
CONT_S_2
100
AcDbLine
  6
BYLAYER
 10
1.77773609493306
 20
18.1535720825505
 11
6.64185657830785
 21
0.0001907348751047
  0
LINE
  5
3F3
100
AcDbEntity
  8
CONT_S_2
100
AcDbLine
  6
BYLAYER
 10
-35.2385455385556
 20
18.1535720825505
 11
-30.374425055179
 21
0.0001907348751047
  0
LINE
  5
3F4
100
AcDbEntity
  8
CONT_S_2
100
AcDbLine
  6
BYLAYER
 10
38.7940177284181
 20
18.1535720825505
 11
43.6581382117947
 21
0.0001907348751047
  0
LINE
  5
3F5
100
AcDbEntity
  8
CONT_S_2
100
AcDbLine
  6
BYLAYER
 10
75.8102993619068
 20
18.1535720825505
 11
80.6744198452816
 21
0.0001907348751047
  0
LINE
  5
3F6
100
AcDbEntity
  8
CONT_S_2
100
AcDbLine
  6
BYLAYER
 10
218.767776458266
 20
100.000190734875
 11
223.631992309114
 21
81.8468093872243
  0
LINE
  5
3F7
100
AcDbEntity
  8
CONT_S_2
100
AcDbLine
  6
BYLAYER
 10
186.859034141702
 20
18.1533813476763
 11
191.723154625077
 21
0
  0
LINE
  5
3F8
100
AcDbEntity
  8
CONT_S_2
100
AcDbLine
  6
BYLAYER
 10
181.751494824777
 20
100.000190734875
 11
186.615710675629
 21
81.8468093872243
  0
LINE
  5
3F9
100
AcDbEntity
  8
CONT_S_2
100
AcDbLine
  6
BYLAYER
 10
197.096958129416
 20
100.000190734875
 11
139.361908827859
 21
0
  0
LINE
  5
3FA
100
AcDbEntity
  8
CONT_S_2
100
AcDbLine
  6
BYLAYER
 10
149.842752508215
 20
18.1533813476763
 11
154.706872991592
 21
0
  0
LINE
  5
3FB
100
AcDbEntity
  8
CONT_S_2
100
AcDbLine
  6
BYLAYER
 10
160.080566375265
 20
100
 11
102.345517073709
 21
-0.0001907348741952
  0
LINE
  5
3FC
100
AcDbEntity
  8
CONT_S_2
100
AcDbLine
  6
BYLAYER
 10
144.735103070627
 20
100
 11
149.599318921479
 21
81.8466186523501
  0
LINE
  5
3FD
100
AcDbEntity
  8
CONT_S_2
100
AcDbLine
  6
BYLAYER
 10
112.826360754065
 20
18.1531906128012
 11
117.690481237441
 21
-0.0001907348741952
  0
LINE
  5
3FE
100
AcDbEntity
  8
CONT_S_2
100
AcDbLine
  6
BYLAYER
 10
325
 20
100
 11
325
 21
0
  0
LINE
  5
3FF
100
AcDbEntity
  8
CONT_S_2
100
AcDbLine
  6
BYLAYER
 10
234.113239762901
 20
100.000190734875
 11
176.378190461344
 21
0
  0
LINE
  5
400
100
AcDbEntity
  8
CONT_S_2
100
AcDbLine
  6
BYLAYER
 10
255.783837850426
 20
99.9998092651258
 11
260.648053701274
 21
81.846427917475
  0
LINE
  5
401
100
AcDbEntity
  8
CONT_S_2
100
AcDbLine
  6
BYLAYER
 10
223.875095533862
 20
18.152999877927
 11
228.739216017237
 21
-0.0003814697492999
  0
LINE
  5
402
100
AcDbEntity
  8
CONT_S_2
100
AcDbLine
  6
BYLAYER
 10
271.129301155061
 20
99.9998092651258
 11
213.394251853504
 21
-0.0003814697492999
  0
LINE
  5
403
100
AcDbEntity
  8
CONT_S_2
100
AcDbLine
  6
BYLAYER
 10
292.800229604576
 20
100
 11
297.664445455424
 21
81.8466186523492
  0
LINE
  5
404
100
AcDbEntity
  8
CONT_S_2
100
AcDbLine
  6
BYLAYER
 10
260.891487288012
 20
18.1531906128012
 11
265.755607771387
 21
-0.0001907348751047
  0
LINE
  5
405
100
AcDbEntity
  8
CONT_S_2
100
AcDbLine
  6
BYLAYER
 10
308.145692909209
 20
99.9999999999982
 11
250.410643607654
 21
-0.0001907348751047
  0
LINE
  5
406
100
AcDbEntity
  8
CONT_S_2
100
AcDbLine
  6
BYLAYER
 10
297.907768921497
 20
18.1531906128012
 11
302.77183829828
 21
-9.095E-13
  0
LINE
  5
407
100
AcDbEntity
  8
CONT_S_2
100
AcDbLine
  6
BYLAYER
 10
325
 20
65.0783826418783
 11
287.426925241139
 21
-0.0001907348751047
  0
LINE
  5
408
100
AcDbEntity
  8
CONT_S_2
100
AcDbLine
  6
BYLAYER
 10
-220.320063826652
 20
18.1533813476763
 11
-215.455943343277
 21
0
  0
LINE
  5
409
100
AcDbEntity
  8
CONT_S_2
100
AcDbLine
  6
BYLAYER
 10
-173.065858205451
 20
100.000190734875
 11
-230.80090750701
 21
0
  0
LINE
  5
40A
100
AcDbEntity
  8
CONT_S_2
100
AcDbLine
  6
BYLAYER
 10
-188.41132151009
 20
100.000190734875
 11
-183.54710565924
 21
81.8468093872243
  0
LINE
  5
40B
100
AcDbEntity
  8
CONT_S_2
100
AcDbLine
  6
BYLAYER
 10
-257.336455580802
 20
18.1531906128012
 11
-252.472335097427
 21
-0.0001907348751047
  0
LINE
  5
40C
100
AcDbEntity
  8
CONT_S_2
100
AcDbLine
  6
BYLAYER
 10
-210.082249959602
 20
100
 11
-267.81729926116
 21
-0.0001907348751047
  0
LINE
  5
40D
100
AcDbEntity
  8
CONT_S_2
100
AcDbLine
  6
BYLAYER
 10
-225.42771326424
 20
100
 11
-220.56349741339
 21
81.8466186523492
  0
LINE
  5
40E
100
AcDbEntity
  8
CONT_S_2
100
AcDbLine
  6
BYLAYER
 10
-294.352737214289
 20
18.1531906128012
 11
-289.488616730914
 21
-0.0001907348751047
  0
LINE
  5
40F
100
AcDbEntity
  8
CONT_S_2
100
AcDbLine
  6
BYLAYER
 10
-247.098531593088
 20
100
 11
-304.833470773983
 21
-1.819E-12
  0
LINE
  5
410
100
AcDbEntity
  8
CONT_S_2
100
AcDbLine
  6
BYLAYER
 10
-262.443994897727
 20
100
 11
-257.579779046877
 21
81.8466186523492
  0
LINE
  5
411
100
AcDbEntity
  8
CONT_S_2
100
AcDbLine
  6
BYLAYER
 10
-284.114813226575
 20
100
 11
-325
 21
29.1846716157015
  0
LINE
  5
412
100
AcDbEntity
  8
CONT_S_2
100
AcDbLine
  6
BYLAYER
 10
-299.460276531214
 20
100
 11
-294.596060680364
 21
81.8466186523492
  0
LINE
  5
413
100
AcDbEntity
  8
CONT_S_2
100
AcDbLine
  6
BYLAYER
 10
-120.283205428072
 20
700
 11
-325
 21
456.028024604559
  0
LINE
  5
414
100
AcDbEntity
  8
CONT_S_2
100
AcDbLine
  6
BYLAYER
 10
-107.229132534752
 20
700
 11
-325
 21
440.470786335954
  0
LINE
  5
415
100
AcDbEntity
  8
CONT_S_2
100
AcDbLine
  6
BYLAYER
 10
325
 20
180.667859790721
 11
257.311628601737
 21
100
  0
LINE
  5
416
100
AcDbEntity
  8
CONT_S_2
100
AcDbLine
  6
BYLAYER
 10
325
 20
196.225098059325
 11
244.257555708415
 21
100
  0
LINE
  5
417
100
AcDbEntity
  8
CONT_S_2
100
AcDbLine
  6
BYLAYER
 10
325
 20
165.110621522119
 11
270.36570149506
 21
100
  0
LINE
  5
418
100
AcDbEntity
  8
CONT_S_2
100
AcDbLine
  6
BYLAYER
 10
150
 20
254.000003479683
 11
150
 21
246.000003479683
  0
LINE
  5
419
100
AcDbEntity
  8
CONT_S_2
100
AcDbLine
  6
BYLAYER
 10
-150
 20
246.000003479683
 11
-150
 21
254.000003479683
  0
LINE
  5
41A
100
AcDbEntity
  8
CONT_S_2
100
AcDbLine
  6
BYLAYER
 10
150
 20
246.000003479683
 11
-150
 21
246.000003479683
  0
LINE
  5
41B
100
AcDbEntity
  8
CONT_S_2
100
AcDbLine
  6
BYLAYER
 10
150
 20
254.000003479683
 11
-150
 21
254.000003479683
  0
LINE
  5
41C
100
AcDbEntity
  8
CONT_S_2
100
AcDbLine
  6
BYLAYER
 10
-133.337278321398
 20
700
 11
-325
 21
471.585262873158
  0
LINE
  5
41D
100
AcDbEntity
  8
CONT_S_2
100
AcDbLine
  6
BYLAYER
 10
-321.131094860062
 20
100
 11
-325
 21
93.2988495444397
  0
LINE
  5
41E
100
AcDbEntity
  8
CONT_S_2
100
AcDbLine
  6
BYLAYER
 10
-246.148150104671
 20
700.000000000005
 11
-325
 21
606.028024604557
  0
LINE
  5
41F
100
AcDbEntity
  8
CONT_S_2
100
AcDbLine
  6
BYLAYER
 10
-233.09407721135
 20
700.000000000004
 11
-325
 21
590.470786335953
  0
LINE
  5
420
100
AcDbEntity
  8
CONT_S_2
100
AcDbLine
  6
BYLAYER
 10
-259.202222997994
 20
700.000000000004
 11
-325
 21
621.585262873156
  0
ENDBLK
  5
421
100
AcDbEntity
  8
0
 67
     1
100
AcDbBlockEnd
  0
BLOCK
  5
422
100
AcDbEntity
  8
0
100
AcDbBlockBegin
  2
基礎_600□650横
 70
    0
 10
0
 20
0
 30
0.0
  3
基礎_600□650横
  1

  0
LINE
  5
423
100
AcDbEntity
  8
CONT_S_2
100
AcDbLine
  6
BYLAYER
 10
325
 20
700
 11
325
 21
100
  0
LINE
  5
424
100
AcDbEntity
  8
CONT_S_2
100
AcDbLine
  6
BYLAYER
 10
-325
 20
700
 11
-325
 21
100
  0
LINE
  5
425
100
AcDbEntity
  8
CONT_S_2
100
AcDbLine
  6
BYLAYER
 10
-1.9839793822E-5
 20
100
 11
-225.000019839794
 21
100
  0
LINE
  5
426
100
AcDbEntity
  8
CONT_S_2
100
AcDbLine
  6
BYLAYER
 10
-45.000019839792
 20
639.719006886761
 11
-325
 21
306.028024604558
  0
LINE
  5
427
100
AcDbEntity
  8
CONT_S_2
100
AcDbLine
  6
BYLAYER
 10
-45.000019839792
 20
624.161768618158
 11
-325
 21
290.470786335956
  0
LINE
  5
428
100
AcDbEntity
  8
CONT_S_2
100
AcDbLine
  6
BYLAYER
 10
-45.000019839792
 20
655.27624515537
 11
-325
 21
321.585262873159
  0
LINE
  5
429
100
AcDbEntity
  8
CONT_S_2
100
AcDbLine
  6
BYLAYER
 10
118.392611031812
 20
700
 11
53
 21
622.06812087373
  0
LINE
  5
42A
100
AcDbEntity
  8
CONT_S_2
100
AcDbLine
  6
BYLAYER
 10
-45.000019839792
 20
505.276245155365
 11
-325
 21
171.585262873162
  0
LINE
  5
42B
100
AcDbEntity
  8
CONT_S_2
100
AcDbLine
  6
BYLAYER
 10
144.500756818459
 20
700
 11
53
 21
590.953644336523
  0
LINE
  5
42C
100
AcDbEntity
  8
CONT_S_2
100
AcDbLine
  6
BYLAYER
 10
-45.000019839792
 20
474.161768618159
 11
-325
 21
140.470786335955
  0
LINE
  5
42D
100
AcDbEntity
  8
CONT_S_2
100
AcDbLine
  6
BYLAYER
 10
131.446683925133
 20
700
 11
53
 21
606.510882605128
  0
LINE
  5
42E
100
AcDbEntity
  8
CONT_S_2
100
AcDbLine
  6
BYLAYER
 10
-45.000019839792
 20
489.719006886763
 11
-325
 21
156.028024604558
  0
LINE
  5
42F
100
AcDbEntity
  8
CONT_S_2
100
AcDbLine
  6
BYLAYER
 10
270.365701495062
 20
700
 11
53
 21
440.953644336523
  0
LINE
  5
430
100
AcDbEntity
  8
CONT_S_2
100
AcDbLine
  6
BYLAYER
 10
257.311628601736
 20
700
 11
53
 21
456.510882605127
  0
LINE
  5
431
100
AcDbEntity
  8
CONT_S_2
100
AcDbLine
  6
BYLAYER
 10
244.257555708417
 20
700
 11
53
 21
472.068120873729
  0
LINE
  5
432
100
AcDbEntity
  8
CONT_S_2
100
AcDbLine
  6
BYLAYER
 10
-45.000019839792
 20
355.276245155364
 11
-259.202222998001
 21
100
  0
LINE
  5
433
100
AcDbEntity
  8
CONT_S_2
100
AcDbLine
  6
BYLAYER
 10
-45.000019839792
 20
339.719006886763
 11
-246.148150104676
 21
100
  0
LINE
  5
434
100
AcDbEntity
  8
CONT_S_2
100
AcDbLine
  6
BYLAYER
 10
-45.000019839792
 20
324.161768618159
 11
-233.094077211354
 21
100
  0
LINE
  5
435
100
AcDbEntity
  8
CONT_S_2
100
AcDbLine
  6
BYLAYER
 10
325
 20
615.110621522121
 11
53
 21
290.953644336523
  0
LINE
  5
436
100
AcDbEntity
  8
CONT_S_2
100
AcDbLine
  6
BYLAYER
 10
325
 20
630.667859790721
 11
53
 21
306.510882605127
  0
LINE
  5
437
100
AcDbEntity
  8
CONT_S_2
100
AcDbLine
  6
BYLAYER
 10
325
 20
646.225098059326
 11
53
 21
322.068120873729
  0
LINE
  5
438
100
AcDbEntity
  8
CONT_S_2
100
AcDbLine
  6
BYLAYER
 10
-45.000019839792
 20
174.161768618159
 11
-107.22913253475
 21
100
  0
LINE
  5
439
100
AcDbEntity
  8
CONT_S_2
100
AcDbLine
  6
BYLAYER
 10
-45.000019839792
 20
189.719006886763
 11
-120.283205428073
 21
100
  0
LINE
  5
43A
100
AcDbEntity
  8
CONT_S_2
100
AcDbLine
  6
BYLAYER
 10
-45.000019839792
 20
205.276245155365
 11
-133.337278321396
 21
100
  0
LINE
  5
43B
100
AcDbEntity
  8
CONT_S_2
100
AcDbLine
  6
BYLAYER
 10
325
 20
465.110621522121
 11
53
 21
140.953644336523
  0
LINE
  5
43C
100
AcDbEntity
  8
CONT_S_2
100
AcDbLine
  6
BYLAYER
 10
325
 20
480.667859790726
 11
53
 21
156.510882605127
  0
LINE
  5
43D
100
AcDbEntity
  8
CONT_S_2
100
AcDbLine
  6
BYLAYER
 10
325
 20
496.225098059325
 11
53
 21
172.068120873729
  0
LINE
  5
43E
100
AcDbEntity
  8
CONT_S_2
100
AcDbLine
  6
BYLAYER
 10
325
 20
330.667859790724
 11
131.446683925133
 21
100
  0
LINE
  5
43F
100
AcDbEntity
  8
CONT_S_2
100
AcDbLine
  6
BYLAYER
 10
325
 20
346.225098059325
 11
118.392611031812
 21
100
  0
LINE
  5
440
100
AcDbEntity
  8
CONT_S_2
100
AcDbLine
  6
BYLAYER
 10
325
 20
315.110621522123
 11
144.500756818457
 21
100
  0
LINE
  5
441
100
AcDbEntity
  8
CONT_S_2
100
AcDbLine
  6
BYLAYER
 10
-325
 20
100
 11
325
 21
99.9999999999991
  0
LINE
  5
442
100
AcDbEntity
  8
CONT_S_2
100
AcDbLine
  6
BYLAYER
 10
-325
 20
-9.095E-13
 11
325
 21
0
  0
LINE
  5
443
100
AcDbEntity
  8
CONT_S_2
100
AcDbLine
  6
BYLAYER
 10
-183.303782193165
 20
18.1533813476763
 11
-178.43966170979
 21
0
  0
LINE
  5
444
100
AcDbEntity
  8
CONT_S_2
100
AcDbLine
  6
BYLAYER
 10
-136.049576571964
 20
100.000190734875
 11
-193.784625873523
 21
0
  0
LINE
  5
445
100
AcDbEntity
  8
CONT_S_2
100
AcDbLine
  6
BYLAYER
 10
-151.395039876603
 20
100.000190734875
 11
-146.530824025753
 21
81.8468093872243
  0
LINE
  5
446
100
AcDbEntity
  8
CONT_S_2
100
AcDbLine
  6
BYLAYER
 10
-325
 20
100
 11
-325
 21
0
  0
LINE
  5
447
100
AcDbEntity
  8
CONT_S_2
100
AcDbLine
  6
BYLAYER
 10
-114.378758243116
 20
100.000190734875
 11
-109.514542392266
 21
81.8468093872243
  0
LINE
  5
448
100
AcDbEntity
  8
CONT_S_2
100
AcDbLine
  6
BYLAYER
 10
-99.0332949384792
 20
100.000190734875
 11
-156.768344240034
 21
0
  0
LINE
  5
449
100
AcDbEntity
  8
CONT_S_2
100
AcDbLine
  6
BYLAYER
 10
-146.28750055968
 20
18.1533813476763
 11
-141.423380076303
 21
0
  0
LINE
  5
44A
100
AcDbEntity
  8
CONT_S_2
100
AcDbLine
  6
BYLAYER
 10
-25.0007316715055
 20
100.000190734875
 11
-82.7357809730602
 21
0
  0
LINE
  5
44B
100
AcDbEntity
  8
CONT_S_2
100
AcDbLine
  6
BYLAYER
 10
-40.3461949761422
 20
100.000190734875
 11
-35.4819791252921
 21
81.8468093872243
  0
LINE
  5
44C
100
AcDbEntity
  8
CONT_S_2
100
AcDbLine
  6
BYLAYER
 10
-77.3624766096291
 20
100.000190734875
 11
-72.498260758779
 21
81.8468093872243
  0
LINE
  5
44D
100
AcDbEntity
  8
CONT_S_2
100
AcDbLine
  6
BYLAYER
 10
-62.0170133049905
 20
100.000190734875
 11
-119.752062606549
 21
0
  0
LINE
  5
44E
100
AcDbEntity
  8
CONT_S_2
100
AcDbLine
  6
BYLAYER
 10
-72.254937292706
 20
18.1533813476763
 11
-67.3908168093294
 21
0
  0
LINE
  5
44F
100
AcDbEntity
  8
CONT_S_2
100
AcDbLine
  6
BYLAYER
 10
-109.271218926191
 20
18.1533813476763
 11
-104.407098442816
 21
0
  0
LINE
  5
450
100
AcDbEntity
  8
CONT_S_2
100
AcDbLine
  6
BYLAYER
 10
123.064504983107
 20
100.000381469749
 11
65.329455681549
 21
0.0001907348751047
  0
LINE
  5
451
100
AcDbEntity
  8
CONT_S_2
100
AcDbLine
  6
BYLAYER
 10
86.0482233496186
 20
100.000381469749
 11
28.313174048064
 21
0.0001907348751047
  0
LINE
  5
452
100
AcDbEntity
  8
CONT_S_2
100
AcDbLine
  6
BYLAYER
 10
70.7027600449819
 20
100.000381469749
 11
75.566975895832
 21
81.8470001220994
  0
LINE
  5
453
100
AcDbEntity
  8
CONT_S_2
100
AcDbLine
  6
BYLAYER
 10
49.0319417161336
 20
100.000381469749
 11
-8.70310758542473
 21
0.0001907348751047
  0
LINE
  5
454
100
AcDbEntity
  8
CONT_S_2
100
AcDbLine
  6
BYLAYER
 10
33.6864784114951
 20
100.000381469749
 11
38.5506942623451
 21
81.8470001220994
  0
LINE
  5
455
100
AcDbEntity
  8
CONT_S_2
100
AcDbLine
  6
BYLAYER
 10
-3.32980322199182
 20
100.000381469749
 11
1.53441262885826
 21
81.8470001220994
  0
LINE
  5
456
100
AcDbEntity
  8
CONT_S_2
100
AcDbLine
  6
BYLAYER
 10
12.0156600826449
 20
100.000381469749
 11
-45.7193892189098
 21
0.0001907348751047
  0
LINE
  5
457
100
AcDbEntity
  8
CONT_S_2
100
AcDbLine
  6
BYLAYER
 10
107.719041678469
 20
100.000381469749
 11
112.583257529319
 21
81.8470001220994
  0
LINE
  5
458
100
AcDbEntity
  8
CONT_S_2
100
AcDbLine
  6
BYLAYER
 10
1.77773609493306
 20
18.1535720825505
 11
6.64185657830785
 21
0.0001907348751047
  0
LINE
  5
459
100
AcDbEntity
  8
CONT_S_2
100
AcDbLine
  6
BYLAYER
 10
-35.2385455385556
 20
18.1535720825505
 11
-30.374425055179
 21
0.0001907348751047
  0
LINE
  5
45A
100
AcDbEntity
  8
CONT_S_2
100
AcDbLine
  6
BYLAYER
 10
38.7940177284181
 20
18.1535720825505
 11
43.6581382117947
 21
0.0001907348751047
  0
LINE
  5
45B
100
AcDbEntity
  8
CONT_S_2
100
AcDbLine
  6
BYLAYER
 10
75.8102993619068
 20
18.1535720825505
 11
80.6744198452816
 21
0.0001907348751047
  0
LINE
  5
45C
100
AcDbEntity
  8
CONT_S_2
100
AcDbLine
  6
BYLAYER
 10
218.767776458266
 20
100.000190734875
 11
223.631992309114
 21
81.8468093872243
  0
LINE
  5
45D
100
AcDbEntity
  8
CONT_S_2
100
AcDbLine
  6
BYLAYER
 10
186.859034141702
 20
18.1533813476763
 11
191.723154625077
 21
0
  0
LINE
  5
45E
100
AcDbEntity
  8
CONT_S_2
100
AcDbLine
  6
BYLAYER
 10
181.751494824777
 20
100.000190734875
 11
186.615710675629
 21
81.8468093872243
  0
LINE
  5
45F
100
AcDbEntity
  8
CONT_S_2
100
AcDbLine
  6
BYLAYER
 10
197.096958129416
 20
100.000190734875
 11
139.361908827859
 21
0
  0
LINE
  5
460
100
AcDbEntity
  8
CONT_S_2
100
AcDbLine
  6
BYLAYER
 10
149.842752508215
 20
18.1533813476763
 11
154.706872991592
 21
0
  0
LINE
  5
461
100
AcDbEntity
  8
CONT_S_2
100
AcDbLine
  6
BYLAYER
 10
160.080566375265
 20
100
 11
102.345517073709
 21
-0.0001907348741952
  0
LINE
  5
462
100
AcDbEntity
  8
CONT_S_2
100
AcDbLine
  6
BYLAYER
 10
144.735103070627
 20
100
 11
149.599318921479
 21
81.8466186523501
  0
LINE
  5
463
100
AcDbEntity
  8
CONT_S_2
100
AcDbLine
  6
BYLAYER
 10
112.826360754065
 20
18.1531906128012
 11
117.690481237441
 21
-0.0001907348741952
  0
LINE
  5
464
100
AcDbEntity
  8
CONT_S_2
100
AcDbLine
  6
BYLAYER
 10
325
 20
100
 11
325
 21
0
  0
LINE
  5
465
100
AcDbEntity
  8
CONT_S_2
100
AcDbLine
  6
BYLAYER
 10
234.113239762901
 20
100.000190734875
 11
176.378190461344
 21
0
  0
LINE
  5
466
100
AcDbEntity
  8
CONT_S_2
100
AcDbLine
  6
BYLAYER
 10
255.783837850426
 20
99.9998092651258
 11
260.648053701274
 21
81.846427917475
  0
LINE
  5
467
100
AcDbEntity
  8
CONT_S_2
100
AcDbLine
  6
BYLAYER
 10
223.875095533862
 20
18.152999877927
 11
228.739216017237
 21
-0.0003814697492999
  0
LINE
  5
468
100
AcDbEntity
  8
CONT_S_2
100
AcDbLine
  6
BYLAYER
 10
271.129301155061
 20
99.9998092651258
 11
213.394251853504
 21
-0.0003814697492999
  0
LINE
  5
469
100
AcDbEntity
  8
CONT_S_2
100
AcDbLine
  6
BYLAYER
 10
292.800229604576
 20
100
 11
297.664445455424
 21
81.8466186523492
  0
LINE
  5
46A
100
AcDbEntity
  8
CONT_S_2
100
AcDbLine
  6
BYLAYER
 10
260.891487288012
 20
18.1531906128012
 11
265.755607771387
 21
-0.0001907348751047
  0
LINE
  5
46B
100
AcDbEntity
  8
CONT_S_2
100
AcDbLine
  6
BYLAYER
 10
308.145692909209
 20
99.9999999999982
 11
250.410643607654
 21
-0.0001907348751047
  0
LINE
  5
46C
100
AcDbEntity
  8
CONT_S_2
100
AcDbLine
  6
BYLAYER
 10
297.907768921497
 20
18.1531906128012
 11
302.77183829828
 21
-9.095E-13
  0
LINE
  5
46D
100
AcDbEntity
  8
CONT_S_2
100
AcDbLine
  6
BYLAYER
 10
325
 20
65.0783826418783
 11
287.426925241139
 21
-0.0001907348751047
  0
LINE
  5
46E
100
AcDbEntity
  8
CONT_S_2
100
AcDbLine
  6
BYLAYER
 10
-220.320063826652
 20
18.1533813476763
 11
-215.455943343277
 21
0
  0
LINE
  5
46F
100
AcDbEntity
  8
CONT_S_2
100
AcDbLine
  6
BYLAYER
 10
-173.065858205451
 20
100.000190734875
 11
-230.80090750701
 21
0
  0
LINE
  5
470
100
AcDbEntity
  8
CONT_S_2
100
AcDbLine
  6
BYLAYER
 10
-188.41132151009
 20
100.000190734875
 11
-183.54710565924
 21
81.8468093872243
  0
LINE
  5
471
100
AcDbEntity
  8
CONT_S_2
100
AcDbLine
  6
BYLAYER
 10
-257.336455580802
 20
18.1531906128012
 11
-252.472335097427
 21
-0.0001907348751047
  0
LINE
  5
472
100
AcDbEntity
  8
CONT_S_2
100
AcDbLine
  6
BYLAYER
 10
-210.082249959602
 20
100
 11
-267.81729926116
 21
-0.0001907348751047
  0
LINE
  5
473
100
AcDbEntity
  8
CONT_S_2
100
AcDbLine
  6
BYLAYER
 10
-225.42771326424
 20
100
 11
-220.56349741339
 21
81.8466186523492
  0
LINE
  5
474
100
AcDbEntity
  8
CONT_S_2
100
AcDbLine
  6
BYLAYER
 10
-294.352737214289
 20
18.1531906128012
 11
-289.488616730914
 21
-0.0001907348751047
  0
LINE
  5
475
100
AcDbEntity
  8
CONT_S_2
100
AcDbLine
  6
BYLAYER
 10
-247.098531593088
 20
100
 11
-304.833470773983
 21
-1.819E-12
  0
LINE
  5
476
100
AcDbEntity
  8
CONT_S_2
100
AcDbLine
  6
BYLAYER
 10
-262.443994897727
 20
100
 11
-257.579779046877
 21
81.8466186523492
  0
LINE
  5
477
100
AcDbEntity
  8
CONT_S_2
100
AcDbLine
  6
BYLAYER
 10
-284.114813226575
 20
100
 11
-325
 21
29.1846716157015
  0
LINE
  5
478
100
AcDbEntity
  8
CONT_S_2
100
AcDbLine
  6
BYLAYER
 10
-299.460276531214
 20
100
 11
-294.596060680364
 21
81.8466186523492
  0
LINE
  5
479
100
AcDbEntity
  8
CONT_S_2
100
AcDbLine
  6
BYLAYER
 10
-120.28320542807
 20
700
 11
-325
 21
456.028024604559
  0
LINE
  5
47A
100
AcDbEntity
  8
CONT_S_2
100
AcDbLine
  6
BYLAYER
 10
-107.22913253475
 20
700
 11
-325
 21
440.470786335954
  0
LINE
  5
47B
100
AcDbEntity
  8
CONT_S_2
100
AcDbLine
  6
BYLAYER
 10
325
 20
180.667859790721
 11
257.311628601736
 21
100
  0
LINE
  5
47C
100
AcDbEntity
  8
CONT_S_2
100
AcDbLine
  6
BYLAYER
 10
325
 20
196.225098059325
 11
244.257555708417
 21
100
  0
LINE
  5
47D
100
AcDbEntity
  8
CONT_S_2
100
AcDbLine
  6
BYLAYER
 10
325
 20
165.110621522119
 11
270.365701495062
 21
100
  0
LINE
  5
47E
100
AcDbEntity
  8
CONT_S_2
100
AcDbLine
  6
BYLAYER
 10
-133.337278321398
 20
700
 11
-325
 21
471.585262873158
  0
LINE
  5
47F
100
AcDbEntity
  8
CONT_S_2
100
AcDbLine
  6
BYLAYER
 10
-321.131094860062
 20
100
 11
-325
 21
93.2988495444397
  0
LINE
  5
480
100
AcDbEntity
  8
CONT_S_2
100
AcDbLine
  6
BYLAYER
 10
-246.148150104675
 20
700
 11
-325
 21
606.028024604557
  0
LINE
  5
481
100
AcDbEntity
  8
CONT_S_2
100
AcDbLine
  6
BYLAYER
 10
-233.094077211352
 20
700
 11
-325
 21
590.470786335953
  0
LINE
  5
482
100
AcDbEntity
  8
CONT_S_2
100
AcDbLine
  6
BYLAYER
 10
-259.202222997998
 20
700
 11
-325
 21
621.585262873156
  0
ENDBLK
  5
483
100
AcDbEntity
  8
0
 67
     1
100
AcDbBlockEnd
  0
BLOCK
  5
484
100
AcDbEntity
  8
0
100
AcDbBlockBegin
  2
押縁B_PV
 70
    0
 10
0
 20
0
 30
0.0
  3
押縁B_PV
  1

  0
LINE
  5
485
100
AcDbEntity
  8
AM_0
100
AcDbLine
  6
BYLAYER
 10
24.25
 20
-2.84E-14
 11
0
 21
0
  0
ARC
  5
486
100
AcDbEntity
  8
AM_0
100
AcDbCircle
  6
BYLAYER
 10
24.25
 20
-0.750000000000014
 40
0.75
100
AcDbArc
 50
270
 51
90
  0
LINE
  5
487
100
AcDbEntity
  8
AM_0
100
AcDbLine
  6
BYLAYER
 10
1.5
 20
-1.50000000000003
 11
1.49999999999994
 21
-3.00000000000109
  0
LINE
  5
488
100
AcDbEntity
  8
AM_0
100
AcDbLine
  6
BYLAYER
 10
0
 20
0
 11
0
 21
-3.00000000000109
  0
LINE
  5
489
100
AcDbEntity
  8
AM_0
100
AcDbLine
  6
BYLAYER
 10
1.5
 20
-1.50000000000003
 11
17.0417424305044
 21
-1.50000000000003
  0
LINE
  5
48A
100
AcDbEntity
  8
AM_0
100
AcDbLine
  6
BYLAYER
 10
1.705E-13
 20
-3.00000000000109
 11
1.49999999999994
 21
-3.00000000000109
  0
ARC
  5
48B
100
AcDbEntity
  8
AM_0
100
AcDbCircle
  6
BYLAYER
 10
17.4999999999999
 20
-1.70000000000002
 40
0.5
100
AcDbArc
 50
23.5781784781995
 51
156.4218215218
  0
LINE
  5
48C
100
AcDbEntity
  8
AM_0
100
AcDbLine
  6
BYLAYER
 10
17.9582575694955
 20
-1.50000000000003
 11
24.25
 21
-1.50000000000001
  0
ENDBLK
  5
48D
100
AcDbEntity
  8
0
 67
     1
100
AcDbBlockEnd
  0
ENDSEC
  0
SECTION
  2
ENTITIES
  0
LINE
  5
48E
100
AcDbEntity
  8
AM_BOR
100
AcDbLine
  6
BYLAYER
370
25
 10
-55.4590362837303
 20
-78.0724721341757
 11
-55.4590362837303
 21
321.927527865824
  0
LINE
  5
48F
100
AcDbEntity
  8
AM_BOR
100
AcDbLine
  6
BYLAYER
370
25
 10
-55.4590362837303
 20
-78.0724721341757
 11
344.54096371627
 21
-78.0724721341757
  0
LINE
  5
490
100
AcDbEntity
  8
AM_BOR
100
AcDbLine
  6
BYLAYER
370
25
 10
8364.54094691942
 20
5881.92752201057
 11
7964.54094691942
 21
5881.92752201057
  0
LINE
  5
491
100
AcDbEntity
  8
AM_BOR
100
AcDbLine
  6
BYLAYER
370
25
 10
8364.54094691942
 20
5881.92752201057
 11
8364.54094691942
 21
5481.92752201056
  0
LINE
  5
492
100
AcDbEntity
  8
AM_6
100
AcDbLine
  6
BYLAYER
 10
2895.46165355445
 20
261.583248600779
 11
2895.46165355445
 21
251.927426634178
  0
LINE
  5
493
100
AcDbEntity
  8
AM_BOR
100
AcDbLine
  6
BYLAYER
 10
364.540946919421
 20
151.927522010566
 11
8164.54094691942
 21
151.927522010566
  0
LINE
  5
494
100
AcDbEntity
  8
AM_BOR
100
AcDbLine
  6
BYLAYER
 10
364.540946919421
 20
5391.92752201057
 11
8164.54094691942
 21
5391.92752201057
  0
LINE
  5
495
100
AcDbEntity
  8
AM_BOR
100
AcDbLine
  6
BYLAYER
 10
364.540946919421
 20
5391.92752201057
 11
364.540946919421
 21
151.927522010566
  0
TEXT
  5
496
100
AcDbEntity
  8
AM_6
100
AcDbText
  6
BYLAYER
 10
344.540946919421
 20
151.927522010566
 40
64
  1
A3
  7
Font_0
 50
90
100
AcDbText
  0
LINE
  5
497
100
AcDbEntity
  8
AM_BOR
100
AcDbLine
  6
BYLAYER
 10
8164.54094691942
 20
5391.92752201057
 11
8164.54094691942
 21
151.927522010566
  0
TEXT
  5
498
100
AcDbEntity
  8
AM_6
100
AcDbText
  6
BYLAYER
 10
7604.54046219868
 20
5411.92752201056
 40
80
  1
株式会社カシイ
  7
Font_0
 72
2
 11
8164.54046219868
 21
5411.92752201056
100
AcDbText
  0
TEXT
  5
499
100
AcDbEntity
  8
AM_6
100
AcDbText
  6
BYLAYER
 10
6789.54094691942
 20
485.677522010567
 40
80
  1
尺度（A3）
  7
Font_0
 72
1
 11
6989.54094691942
 21
525.677522010567
100
AcDbText
 73
2
  0
TEXT
  5
49A
100
AcDbEntity
  8
AM_6
100
AcDbText
  6
BYLAYER
 10
444.540946919421
 20
481.927522010567
 40
80
  1
御承認
  7
Font_0
 11
444.540946919421
 21
521.927522010567
100
AcDbText
 73
2
  0
TEXT
  5
49B
100
AcDbEntity
  8
AM_6
100
AcDbText
  6
BYLAYER
 10
3944.54094691942
 20
481.927522010567
 40
80
  1
名称
  7
Font_0
 11
3944.54094691942
 21
521.927522010567
100
AcDbText
 73
2
  0
LINE
  5
49C
100
AcDbEntity
  8
AM_BOR
100
AcDbLine
  6
BYLAYER
 10
364.540946919421
 20
601.927522010567
 11
8164.54094691942
 21
601.927522010567
  0
LINE
  5
49D
100
AcDbEntity
  8
AM_BOR
100
AcDbLine
  6
BYLAYER
 10
364.540946919421
 20
601.927522010567
 11
364.540946919421
 21
151.927522010566
  0
LINE
  5
49E
100
AcDbEntity
  8
AM_BOR
100
AcDbLine
  6
BYLAYER
370
25
 10
6734.54094691942
 20
601.927522010569
 11
6734.54094691942
 21
151.927522010567
  0
LINE
  5
49F
100
AcDbEntity
  8
AM_BOR
100
AcDbLine
  6
BYLAYER
370
25
 10
4104.54094691942
 20
376.927522010567
 11
6494.54094691942
 21
376.927522010567
  0
LINE
  5
4A0
100
AcDbEntity
  8
AM_BOR
100
AcDbLine
  6
BYLAYER
370
25
 10
2364.54094691942
 20
601.927522010567
 11
2364.54094691942
 21
151.927522010566
  0
LINE
  5
4A1
100
AcDbEntity
  8
AM_BOR
100
AcDbLine
  6
BYLAYER
370
25
 10
6734.54094691942
 20
376.927522010566
 11
8164.54094691942
 21
376.927522010566
  0
TEXT
  5
4A2
100
AcDbEntity
  8
AM_6
100
AcDbText
  6
BYLAYER
 10
6789.54094691942
 20
260.677522010567
 40
80
  1
作　成　日
  7
Font_0
 72
1
 11
6989.54094691942
 21
300.677522010567
100
AcDbText
 73
2
  0
LINE
  5
4A3
100
AcDbEntity
  8
AM_BOR
100
AcDbLine
  6
BYLAYER
370
25
 10
3864.54094691942
 20
601.927522010567
 11
3864.54094691942
 21
151.927522010566
  0
TEXT
  5
4A4
100
AcDbEntity
  8
AM_6
100
AcDbText
  6
BYLAYER
 10
4117.40372110765
 20
439.491314666737
 40
80
 41
0.83
  1
ポステージ
  7
Font_0
 11
4117.40372110765
 21
479.491314666737
100
AcDbText
 73
2
  0
TEXT
  5
4A5
100
AcDbEntity
  8
AM_6
100
AcDbText
  6
BYLAYER
 10
4117.40372110765
 20
214.491314666737
 40
80
 41
0.83
  1
PKA-H-1812-S_照明なし_強化_キー付
  7
Font_0
 11
4117.40372110765
 21
254.491314666737
100
AcDbText
 73
2
  0
TEXT
  5
4A6
100
AcDbEntity
  8
AM_6
100
AcDbText
  6
BYLAYER
 10
7386.05759985225
 20
449.427522010566
 40
80
 41
0.83
  1
1:20
  7
Font_0
 11
7386.05759985225
 21
489.427522010566
100
AcDbText
 73
2
  0
LINE
  5
4A7
100
AcDbEntity
  8
AM_6
100
AcDbLine
  6
BYLAYER
 10
2465.86433095512
 20
269.573376211954
 11
2465.86433095512
 21
501.927617386956
  0
LWPOLYLINE
  5
4A8
100
AcDbEntity
  8
AM_6
100
AcDbPolyline
  6
BYLAYER
 90
     13
 10
3453.55457162064
  20
430.259382646535
 10
3483.01654053221
  20
430.259382646535
 10
3483.01654053221
  20
358.011335895256
 10
3530.61896203332
  20
358.011335895256
 10
3530.61896203332
  20
430.259382646535
 10
3560.06357996201
  20
430.259382646535
 10
3560.06357996201
  20
253.350207229442
 10
3530.61896203332
  20
253.350207229442
 10
3530.61896203332
  20
331.672543900118
 10
3483.01654053221
  20
331.672543900118
 10
3483.01654053221
  20
253.350207229442
 10
3453.55457162064
  20
253.350207229442
 10
3453.55457162064
  20
430.259382646535
  0
LWPOLYLINE
  5
4A9
100
AcDbEntity
  8
AM_6
100
AcDbPolyline
  6
BYLAYER
 90
     4
 10
3171.26564766391
  20
397.982216764482
 10
3148.57056207125
  20
317.852486044953
 10
3192.24298595252
  20
317.852486044953
 10
3171.26564766391
  20
397.982216764482
  0
LWPOLYLINE
  5
4AA
100
AcDbEntity
  8
AM_6
100
AcDbPolyline
  6
BYLAYER
 90
     5
 10
3733.78162044646
  20
430.259382646535
 10
3763.21756288372
  20
430.259382646535
 10
3763.21756288372
  20
253.350207229442
 10
3733.78162044646
  20
253.350207229442
 10
3733.78162044646
  20
430.259382646535
  0
LWPOLYLINE
  5
4AB
100
AcDbEntity
  8
AM_6
100
AcDbPolyline
  6
BYLAYER
 90
     9
 10
3155.00777671565
  20
427.019086595753
 10
3189.01570313889
  20
427.019086595753
 10
3240.44401636261
  20
250.105573432935
 10
3209.54191587292
  20
250.105573432935
 10
3198.71490256266
  20
292.806342273546
 10
3141.52606302644
  20
292.806342273546
 10
3130.22189768728
  20
250.105573432935
 10
3101.20816249983
  20
250.105573432935
 10
3155.00777671565
  20
427.019086595753
  0
LWPOLYLINE
  5
4AC
100
AcDbEntity
  8
AM_6
100
AcDbPolyline
  6
BYLAYER
 90
     10
 10
3033.84610833062
  20
261.583248600775
 10
3034.25512008662
  20
260.525188975802
 10
3034.65927312507
  20
259.463360206153
 10
3035.05856634471
  20
258.397790909286
 10
3035.45299864425
  20
257.32850970266
 10
3035.84256892244
  20
256.255545203733
 10
3036.227276078
  20
255.178926029963
 10
3036.60711900965
  20
254.098680798808
 10
3036.98209661614
  20
253.014838127727
 10
3037.35220779619
  20
251.927426634178
  0
LWPOLYLINE
  5
4AD
100
AcDbEntity
  8
AM_6
100
AcDbPolyline
  6
BYLAYER
 90
     5
 10
3634.13492582978
  20
430.259382646535
 10
3663.57086826704
  20
430.259382646535
 10
3663.57086826704
  20
253.350207229442
 10
3634.13492582978
  20
253.350207229442
 10
3634.13492582978
  20
430.259382646535
  0
LWPOLYLINE
  5
4AE
100
AcDbEntity
  8
AM_6
100
AcDbPolyline
  6
BYLAYER
 90
     10
 10
3060.12537281175
  20
251.927426634178
 10
3060.12537281175
  20
252.055700040773
 10
3060.12537281175
  20
252.435987396561
 10
3060.12537281175
  20
253.061489405544
 10
3060.12537281175
  20
253.925406771728
 10
3060.12537281175
  20
255.020940199115
 10
3060.12537281175
  20
256.34129039171
 10
3060.12537281175
  20
257.879658053516
 10
3060.12537281175
  20
259.629243888536
 10
3060.12537281175
  20
261.583248600776
  0
LWPOLYLINE
  5
4AF
100
AcDbEntity
  8
AM_6
100
AcDbPolyline
  6
BYLAYER
 90
     10
 10
2996.3840210958
  20
269.573376211954
 10
2993.33077121055
  20
276.590296156065
 10
2989.37729581998
  20
284.190138606162
 10
2984.41711447687
  20
292.159359438362
 10
2978.343746734
  20
300.28441452878
 10
2971.05071214415
  20
308.35175975353
 10
2962.43153026011
  20
316.147850988727
 10
2952.37972063467
  20
323.459144110488
 10
2940.78880282059
  20
330.072094994925
 10
2927.55229637067
  20
335.773159518156
  0
LWPOLYLINE
  5
4B0
100
AcDbEntity
  8
AM_6
100
AcDbPolyline
  6
BYLAYER
 90
     739
 10
3347.1091835498
  20
355.400012973469
 10
3346.77503333142
  20
355.636794981974
 10
3346.48661092625
  20
355.840428044812
 10
3346.23919777141
  20
356.014285964209
 10
3346.02807530399
  20
356.161742542387
 10
3345.84852496109
  20
356.286171581573
 10
3345.6958281798
  20
356.39094688399
 10
3345.56526639725
  20
356.479442251864
 10
3345.45212105051
  20
356.555031487418
 10
3345.35167357669
  20
356.621088392877
 10
3345.25753735431
  20
356.682119304899
 10
3345.15665352747
  20
356.747160697872
 10
3345.03429518172
  20
356.826381580618
 10
3344.87573540256
  20
356.929950961958
 10
3344.66624727555
  20
357.068037850713
 10
3344.3911038862
  20
357.250811255704
 10
3344.03557832003
  20
357.488440185754
 10
3343.58494366259
  20
357.791093649683
 10
3343.02447299939
  20
358.168940656313
 10
3342.34507134507
  20
358.628503691603
 10
3341.56017143072
  20
359.161719150058
 10
3340.68883791652
  20
359.756876903324
 10
3339.75013546267
  20
360.402266823044
 10
3338.76312872934
  20
361.086178780862
 10
3337.74688237673
  20
361.796902648422
 10
3336.72046106504
  20
362.522728297368
 10
3335.70292945444
  20
363.251945599344
 10
3334.71335220514
  20
363.972844425994
 10
3333.76761455052
  20
364.675661378464
 10
3332.86888401685
  20
365.358419975911
 10
3332.01714870358
  20
366.02109046699
 10
3331.21239671018
  20
366.66364310036
 10
3330.4546161361
  20
367.286048124679
 10
3329.74379508083
  20
367.888275788604
 10
3329.0799216438
  20
368.470296340792
 10
3328.4629839245
  20
369.032080029901
 10
3327.89297002238
  20
369.57359710459
 10
3327.36900326456
  20
370.095204580965
 10
3326.88674788873
  20
370.598806544939
 10
3326.44100336026
  20
371.086693849874
 10
3326.0265691445
  20
371.561157349132
 10
3325.63824470679
  20
372.024487896076
 10
3325.27082951251
  20
372.478976344069
 10
3324.91912302699
  20
372.926913546472
 10
3324.5779247156
  20
373.370590356648
 10
3324.24203404369
  20
373.812297627959
 10
3323.90745838111
  20
374.254040600881
 10
3323.57503671572
  20
374.696682064343
 10
3323.24681593987
  20
375.140799194386
 10
3322.92484294592
  20
375.586969167053
 10
3322.61116462622
  20
376.035769158385
 10
3322.30782787313
  20
376.487776344425
 10
3322.016879579
  20
376.943567901214
 10
3321.74036663618
  20
377.403721004794
 10
3321.48033593704
  20
377.868812831207
 10
3321.23849520862
  20
378.339330310757
 10
3321.01519551677
  20
378.815399390792
 10
3320.81044876202
  20
379.297055772925
 10
3320.6242668449
  20
379.784335158764
 10
3320.45666166596
  20
380.277273249922
 10
3320.30764512573
  20
380.77590574801
 10
3320.17722912475
  20
381.280268354637
 10
3320.06542556355
  20
381.790396771415
 10
3319.97224634268
  20
382.306326699955
 10
3319.89735626367
  20
382.82837647962
 10
3319.83903173209
  20
383.357995000783
 10
3319.79520205452
  20
383.89691379157
 10
3319.76379653751
  20
384.446864380108
 10
3319.74274448765
  20
385.009578294521
 10
3319.72997521151
  20
385.586787062936
 10
3319.72341801565
  20
386.180222213478
 10
3319.72100220665
  20
386.791615274274
 10
3319.72065709108
  20
387.42269777345
 10
3319.72113112913
  20
388.074160933859
 10
3319.72444939552
  20
388.74253475727
 10
3319.73345611857
  20
389.42330894018
 10
3319.7509955266
  20
390.111973179086
 10
3319.77991184796
  20
390.804017170486
 10
3319.82304931097
  20
391.494930610875
 10
3319.88325214397
  20
392.180203196752
 10
3319.96336457527
  20
392.855324624612
 10
3320.06623083322
  20
393.515784590954
 10
3320.19421912466
  20
394.157833434925
 10
3320.34779357055
  20
394.780764066292
 10
3320.52694227033
  20
395.384630037469
 10
3320.73165332347
  20
395.969484900872
 10
3320.96191482944
  20
396.535382208919
 10
3321.2177148877
  20
397.082375514025
 10
3321.49904159771
  20
397.610518368606
 10
3321.80588305893
  20
398.11986432508
 10
3322.13822737083
  20
398.610466935862
 10
3322.49558859482
  20
399.082712968403
 10
3322.87558464008
  20
399.538322050292
 10
3323.27535937775
  20
399.979347024153
 10
3323.69205667895
  20
400.407840732607
 10
3324.12282041483
  20
400.82585601828
 10
3324.56479445651
  20
401.235445723794
 10
3325.01512267513
  20
401.638662691773
 10
3325.47094894182
  20
402.03755976484
 10
3325.92941712771
  20
402.434189785618
 10
3326.38856562762
  20
402.829860821461
 10
3326.85001093118
  20
403.222901838639
 10
3327.31626405165
  20
403.610897028151
 10
3327.78983600235
  20
403.991430580997
 10
3328.27323779657
  20
404.362086688177
 10
3328.7689804476
  20
404.72044954069
 10
3329.27957496874
  20
405.064103329537
 10
3329.80753237329
  20
405.390632245716
 10
3330.35536367454
  20
405.697620480229
 10
3330.92515741672
  20
405.983054858907
 10
3331.51731226783
  20
406.246532746917
 10
3332.13180442679
  20
406.488054144261
 10
3332.76861009253
  20
406.707619050936
 10
3333.42770546397
  20
406.905227466944
 10
3334.10906674003
  20
407.080879392285
 10
3334.81267011965
  20
407.234574826958
 10
3335.53849180175
  20
407.366313770963
 10
3336.28650798526
  20
407.476096224301
 10
3337.0554611801
  20
407.56432878865
 10
3337.83915914022
  20
407.633044472406
 10
3338.63017593057
  20
407.684682885643
 10
3339.42108561608
  20
407.721683638435
 10
3340.2044622617
  20
407.746486340855
 10
3340.97287993238
  20
407.761530602979
 10
3341.71891269306
  20
407.769256034881
 10
3342.43513460869
  20
407.772102246634
 10
3343.11411974421
  20
407.772508848313
 10
3343.75058426122
  20
407.772370008715
 10
3344.34781270792
  20
407.771398131532
 10
3344.91123172914
  20
407.768760179175
 10
3345.44626796975
  20
407.763623114059
 10
3345.95834807459
  20
407.755153898599
 10
3346.4528986885
  20
407.742519495207
 10
3346.93534645634
  20
407.724886866297
 10
3347.41111802295
  20
407.701422974283
 10
3347.88564003319
  20
407.671294781578
 10
3348.36342279054
  20
407.633798173081
 10
3348.84531123315
  20
407.588744723622
 10
3349.33123395777
  20
407.536074930517
 10
3349.8211195612
  20
407.475729291081
 10
3350.31489664022
  20
407.407648302629
 10
3350.81249379159
  20
407.331772462477
 10
3351.3138396121
  20
407.248042267939
 10
3351.81886269853
  20
407.156398216332
 10
3352.32749164765
  20
407.05678080497
 10
3352.83960348726
  20
406.949293171839
 10
3353.35486896915
  20
406.834689017615
 10
3353.87290727615
  20
406.71388468364
 10
3354.39333759108
  20
406.587796511261
 10
3354.91577909675
  20
406.457340841822
 10
3355.43985097599
  20
406.323434016669
 10
3355.9651724116
  20
406.186992377146
 10
3356.49136258641
  20
406.048932264598
 10
3357.01804068324
  20
405.91017002037
 10
3357.5449567908
  20
405.771332406076
 10
3358.07238462146
  20
405.631887864397
 10
3358.60072879346
  20
405.491015258285
 10
3359.13039392506
  20
405.347893450689
 10
3359.66178463451
  20
405.201701304562
 10
3360.19530554008
  20
405.051617682853
 10
3360.73136126002
  20
404.896821448512
 10
3361.27035641259
  20
404.736491464492
 10
3361.81269561604
  20
404.569806593742
 10
3362.35871605225
  20
404.396081563675
 10
3362.9084851576
  20
404.215174559561
 10
3363.46200293209
  20
404.027079631131
 10
3364.01926937571
  20
403.831790828117
 10
3364.58028448848
  20
403.629302200249
 10
3365.14504827038
  20
403.41960779726
 10
3365.71356072142
  20
403.202701668881
 10
3366.2858218416
  20
402.978577864843
 10
3366.86183163092
  20
402.747230434879
 10
3367.44029689769
  20
402.509338701304
 10
3368.01475168352
  20
402.268323076781
 10
3368.5774368383
  20
402.028289246557
 10
3369.12059321195
  20
401.793342895877
 10
3369.63646165439
  20
401.567589709989
 10
3370.11728301551
  20
401.355135374139
 10
3370.55529814523
  20
401.160085573575
 10
3370.94274789347
  20
400.986545993542
 10
3371.27187311012
  20
400.838622319289
 10
3371.53775093975
  20
400.719040765487
 10
3371.74680370546
  20
400.62500966451
 10
3371.90829002499
  20
400.552357878159
 10
3372.03146851608
  20
400.496914268234
 10
3372.12559779649
  20
400.454507696534
 10
3372.19993648395
  20
400.42096702486
 10
3372.26374319622
  20
400.392121115011
 10
3372.32627655103
  20
400.363798828788
 10
3372.39679516613
  20
400.331829027991
 10
3372.48237589416
  20
400.293025343852
 10
3372.58136852734
  20
400.248140485333
 10
3372.68994109275
  20
400.198911930828
 10
3372.80426161751
  20
400.147077158732
 10
3372.92049812872
  20
400.094373647438
 10
3373.03481865348
  20
400.042538875342
 10
3373.14339121889
  20
399.993310320837
 10
3373.24238385207
  20
399.948425462318
 10
3373.3279645801
  20
399.909621778179
 10
3373.39725942332
  20
399.878202377216
 10
3373.45122637495
  20
399.853732889829
 10
3373.49178142145
  20
399.835344576823
 10
3373.52084054925
  20
399.822168698999
 10
3373.54031974481
  20
399.813336517162
 10
3373.55213499457
  20
399.807979292113
 10
3373.55820228499
  20
399.805228284655
 10
3373.56043760252
  20
399.804214755592
 10
3373.56075693359
  20
399.804069965726
 10
3373.56075693359
  20
399.810405018227
 10
3373.56075693359
  20
399.854750385738
 10
3373.56075693359
  20
399.975116383268
 10
3373.56075693359
  20
400.209513325825
 10
3373.56075693359
  20
400.59595152842
 10
3373.56075693359
  20
401.172441306061
 10
3373.56075693359
  20
401.976992973759
 10
3373.56075693359
  20
403.047616846521
 10
3373.56075693359
  20
404.422323239359
 10
3373.56075693359
  20
406.120117309775
 10
3373.56075693359
  20
408.083983585256
 10
3373.56075693359
  20
410.237901435785
 10
3373.56075693359
  20
412.505850231341
 10
3373.56075693359
  20
414.811809341906
 10
3373.56075693359
  20
417.079758137462
 10
3373.56075693359
  20
419.23367598799
 10
3373.56075693359
  20
421.197542263472
 10
3373.56075693359
  20
422.895336333889
 10
3373.55956291305
  20
424.270464204076
 10
3373.55120476927
  20
425.34403841829
 10
3373.528518379
  20
426.156598155641
 10
3373.48433961901
  20
426.74868259524
 10
3373.41150436605
  20
427.160830916198
 10
3373.30284849687
  20
427.433582297625
 10
3373.15120788825
  20
427.607475918632
 10
3372.94941841692
  20
427.723050958329
 10
3372.69031595966
  20
427.820846595827
 10
3372.36909864981
  20
427.934121856759
 10
3371.99041364703
  20
428.067015152849
 10
3371.56127036761
  20
428.216384742341
 10
3371.08867822778
  20
428.379088883484
 10
3370.57964664383
  20
428.551985834521
 10
3370.041185032
  20
428.7319338537
 10
3369.48030280856
  20
428.915791199266
 10
3368.90400938978
  20
429.100416129464
 10
3368.31931419192
  20
429.282666902542
 10
3367.7320683123
  20
429.459924408659
 10
3367.14348957254
  20
429.631660065632
 10
3366.55363747533
  20
429.797867923193
 10
3365.96257152335
  20
429.958542031073
 10
3365.37035121929
  20
430.113676439005
 10
3364.77703606582
  20
430.263265196719
 10
3364.18268556565
  20
430.407302353948
 10
3363.58735922144
  20
430.545781960422
 10
3362.99111653589
  20
430.678698065874
 10
3362.39402296195
  20
430.806153808289
 10
3361.79616775364
  20
430.928688678676
 10
3361.19764611526
  20
431.0469512563
 10
3360.59855325111
  20
431.161590120424
 10
3359.99898436549
  20
431.27325385031
 10
3359.39903466268
  20
431.382591025224
 10
3358.79879934698
  20
431.490250224428
 10
3358.19837362269
  20
431.596880027187
 10
3357.59785269411
  20
431.703129012763
 10
3356.99732581526
  20
431.809419650219
 10
3356.39685843909
  20
431.915269967808
 10
3355.7965100683
  20
432.019971883581
 10
3355.19634020555
  20
432.122817315591
 10
3354.59640835355
  20
432.223098181888
 10
3353.99677401497
  20
432.320106400525
 10
3353.3974966925
  20
432.413133889554
 10
3352.79863588882
  20
432.501472567025
 10
3352.20025110661
  20
432.58441435099
 10
3351.60239589831
  20
432.661374131717
 10
3351.00510001524
  20
432.732258688332
 10
3350.40838725848
  20
432.797097772177
 10
3349.8122814291
  20
432.855921134596
 10
3349.21680632818
  20
432.90875852693
 10
3348.6219857568
  20
432.955639700522
 10
3348.02784351602
  20
432.996594406714
 10
3347.43440340692
  20
433.031652396849
 10
3346.84168923057
  20
433.060843422269
 10
3346.24725145979
  20
433.084300372304
 10
3345.63874725434
  20
433.10256868823
 10
3345.00136044571
  20
433.11629694931
 10
3344.32027486542
  20
433.126133734808
 10
3343.58067434496
  20
433.132727623988
 10
3342.76774271583
  20
433.136727196114
 10
3341.86666380953
  20
433.138781030449
 10
3340.86262145756
  20
433.139537706257
 10
3339.74079949143
  20
433.139645802801
 10
3338.49207019929
  20
433.138637232294
 10
3337.13005969596
  20
433.13157723875
 10
3335.67408255289
  20
433.112414399131
 10
3334.14345334154
  20
433.075097290399
 10
3332.5574866334
  20
433.013574489516
 10
3330.93549699991
  20
432.921794573445
 10
3329.29679901255
  20
432.793706119148
 10
3327.66070724278
  20
432.623257703588
 10
3326.04653626207
  20
432.404397903726
 10
3324.47038353006
  20
432.132078908474
 10
3322.93547805911
  20
431.805267354542
 10
3321.44183174975
  20
431.423933490585
 10
3319.98945650253
  20
430.988047565263
 10
3318.57836421797
  20
430.497579827232
 10
3317.20856679663
  20
429.952500525151
 10
3315.88007613902
  20
429.352779907677
 10
3314.5929041457
  20
428.698388223468
 10
3313.3470627172
  20
427.98929572118
 10
3312.14179021915
  20
427.226491137093
 10
3310.97323087758
  20
426.415037157967
 10
3309.83675538362
  20
425.56101495818
 10
3308.72773442839
  20
424.670505712113
 10
3307.64153870304
  20
423.749590594146
 10
3306.57353889867
  20
422.804350778659
 10
3305.51910570643
  20
421.840867440032
 10
3304.47360981743
  20
420.865221752645
 10
3303.4324219228
  20
419.883494890878
 10
3302.3927652306
  20
418.90005435179
 10
3301.35927301654
  20
417.912412923161
 10
3300.33843107325
  20
416.916369715447
 10
3299.33672519337
  20
415.907723839105
 10
3298.36064116953
  20
414.882274404594
 10
3297.41666479439
  20
413.835820522372
 10
3296.51128186056
  20
412.764161302895
 10
3295.65097816069
  20
411.663095856622
 10
3294.84223948741
  20
410.528423294009
 10
3294.09046471765
  20
409.356653782598
 10
3293.3967050655
  20
408.147141718259
 10
3292.76092482937
  20
406.899952553946
 10
3292.18308830763
  20
405.61515174261
 10
3291.66315979868
  20
404.292804737206
 10
3291.2011036009
  20
402.932976990687
 10
3290.79688401268
  20
401.535733956006
 10
3290.45046533242
  20
400.101141086117
 10
3290.1618118585
  20
398.629263833972
 10
3289.92982477467
  20
397.121998351791
 10
3289.74915280616
  20
395.588563588864
 10
3289.61338156356
  20
394.040009193745
 10
3289.51609665743
  20
392.48738481499
 10
3289.45088369839
  20
390.941740101155
 10
3289.411328297
  20
389.414124700794
 10
3289.39101606385
  20
387.915588262465
 10
3289.38353260953
  20
386.457180434721
 10
3289.38246354463
  20
385.049950866118
 10
3289.38298320141
  20
383.702263650708
 10
3289.38662079887
  20
382.411740664524
 10
3289.39649427769
  20
381.173318229094
 10
3289.41572157855
  20
379.981932665948
 10
3289.44742064214
  20
378.832520296615
 10
3289.49470940912
  20
377.720017442624
 10
3289.56070582018
  20
376.639360425503
 10
3289.64852781601
  20
375.585485566782
 10
3289.76129333727
  20
374.55332918799
 10
3289.90160066788
  20
373.538672879349
 10
3290.06996946461
  20
372.540679305857
 10
3290.26639972746
  20
371.559356401206
 10
3290.49089145643
  20
370.594712099086
 10
3290.74344465152
  20
369.646754333188
 10
3291.02405931274
  20
368.715491037205
 10
3291.33273544007
  20
367.800930144827
 10
3291.66947303353
  20
366.903079589745
 10
3292.03427209311
  20
366.021947305652
 10
3292.42661692888
  20
365.157228837143
 10
3292.84392909116
  20
364.307370172436
 10
3293.28311444035
  20
363.470504910652
 10
3293.74107883684
  20
362.644766650913
 10
3294.21472814103
  20
361.828288992343
 10
3294.70096821331
  20
361.019205534062
 10
3295.19670491407
  20
360.215649875193
 10
3295.69884410371
  20
359.415755614858
 10
3296.20429164263
  20
358.617656352179
 10
3296.71136360483
  20
357.819649979803
 10
3297.22401691887
  20
357.020691564471
 10
3297.74761872689
  20
356.219900466449
 10
3298.28753617107
  20
355.416396046003
 10
3298.84913639357
  20
354.609297663399
 10
3299.43778653655
  20
353.797724678903
 10
3300.05885374217
  20
352.98079645278
 10
3300.7177051526
  20
352.157632345298
 10
3301.41970791
  20
351.327351716721
 10
3302.16933066599
  20
350.48922466745
 10
3302.96744811005
  20
349.643124258424
 10
3303.81403644109
  20
348.789074290718
 10
3304.70907185804
  20
347.927098565405
 10
3305.65253055983
  20
347.057220883558
 10
3306.64438874539
  20
346.179465046253
 10
3307.68462261363
  20
345.293854854562
 10
3308.77320836349
  20
344.40041410956
 10
3309.9101221939
  20
343.499166612321
 10
3311.09189509832
  20
342.592014465333
 10
3312.30127724847
  20
341.688372976745
 10
3313.51757361058
  20
340.799535756119
 10
3314.7200891509
  20
339.936796413018
 10
3315.88812883569
  20
339.111448557005
 10
3317.00099763119
  20
338.334785797643
 10
3318.03800050366
  20
337.618101744495
 10
3318.97844241933
  20
336.972690007123
 10
3319.80162834447
  20
336.409844195092
 10
3320.49300193895
  20
335.937156189831
 10
3321.06256163724
  20
335.547410960247
 10
3321.52644456745
  20
335.229691747114
 10
3321.90078785766
  20
334.973081791204
 10
3322.20172863598
  20
334.766664333292
 10
3322.44540403051
  20
334.599522614151
 10
3322.64795116935
  20
334.460739874555
 10
3322.8255071806
  20
334.339399355278
 10
3322.99420919237
  20
334.224584297094
 10
3323.16751472851
  20
334.107175582996
 10
3323.34816289594
  20
333.985244664858
 10
3323.53621319736
  20
333.858660636773
 10
3323.73172513544
  20
333.727292592836
 10
3323.93475821287
  20
333.591009627139
 10
3324.14537193234
  20
333.449680833777
 10
3324.36362579653
  20
333.303175306842
 10
3324.58957930812
  20
333.15136214043
 10
3324.82329196981
  20
332.994110428632
 10
3325.06791544045
  20
332.829238406343
 10
3325.33897000365
  20
332.646360871653
 10
3325.65506809919
  20
332.433041763453
 10
3326.03482216687
  20
332.176845020631
 10
3326.49684464646
  20
331.865334582079
 10
3327.05974797775
  20
331.486074386687
 10
3327.74214460053
  20
331.026628373344
 10
3328.56264695459
  20
330.474560480942
 10
3329.5398674797
  20
329.817434648369
 10
3330.68416559328
  20
329.047102974664
 10
3331.97288862325
  20
328.17257019945
 10
3333.37513087516
  20
327.207129222495
 10
3334.85998665455
  20
326.164072943572
 10
3336.39655026699
  20
325.056694262448
 10
3337.95391601801
  20
323.898286078895
 10
3339.50117821316
  20
322.702141292682
 10
3341.00743115798
  20
321.48155280358
 10
3342.44176915804
  20
320.249813511358
 10
3343.77843746795
  20
319.018018683296
 10
3345.01228513863
  20
317.788473056717
 10
3346.1433121701
  20
316.561283736454
 10
3347.17151856233
  20
315.336557827338
 10
3348.09690431535
  20
314.114402434204
 10
3348.91946942914
  20
312.894924661882
 10
3349.6392139037
  20
311.678231615206
 10
3350.25613773904
  20
310.464430399009
 10
3350.77024093516
  20
309.253628118122
 10
3351.18342757797
  20
308.046741113891
 10
3351.50521809702
  20
306.84792267371
 10
3351.74703700779
  20
305.662135321487
 10
3351.92030882574
  20
304.494341581127
 10
3352.03645806634
  20
303.349503976539
 10
3352.10690924507
  20
302.23258503163
 10
3352.14308687739
  20
301.148547270305
 10
3352.15641547877
  20
300.102353216472
 10
3352.15831956468
  20
299.098965394039
 10
3352.1577999079
  20
298.141953964088
 10
3352.15416231044
  20
297.229319636414
 10
3352.14428883162
  20
296.357670757986
 10
3352.12506153076
  20
295.523615675774
 10
3352.09336246718
  20
294.723762736748
 10
3352.0460737002
  20
293.954720287878
 10
3351.98007728913
  20
293.213096676135
 10
3351.89225529331
  20
292.495500248487
 10
3351.77948977204
  20
291.798539351907
 10
3351.63918640828
  20
291.119387608867
 10
3351.47084537947
  20
290.457479743864
 10
3351.27449048669
  20
289.812815756898
 10
3351.050145531
  20
289.185395647968
 10
3350.7978343135
  20
288.575219417074
 10
3350.51758063523
  20
287.982287064218
 10
3350.2094082973
  20
287.406598589397
 10
3349.87334110075
  20
286.848153992613
 10
3349.50940284668
  20
286.306953273866
 10
3349.11813104266
  20
285.782665201543
 10
3348.70211802233
  20
285.273633617586
 10
3348.26446982583
  20
284.777871132326
 10
3347.8082924933
  20
284.293390356091
 10
3347.33669206489
  20
283.818203899213
 10
3346.85277458074
  20
283.35032437202
 10
3346.35964608099
  20
282.887764384842
 10
3345.86041260579
  20
282.42853654801
 10
3345.35818019527
  20
281.970653471853
 10
3344.85516234932
  20
281.512956837442
 10
3344.35000240672
  20
281.057604608809
 10
3343.84045116598
  20
280.607583820729
 10
3343.32425942563
  20
280.165881507975
 10
3342.79917798417
  20
279.73548470532
 10
3342.26295764014
  20
279.319380447539
 10
3341.71334919204
  20
278.920555769406
 10
3341.14810343839
  20
278.541997705693
 10
3340.56497117771
  20
278.186693291175
 10
3339.9620840257
  20
277.857107920423
 10
3339.33909686678
  20
277.553620427196
 10
3338.69604540257
  20
277.27608800505
 10
3338.03296533468
  20
277.024367847543
 10
3337.34989236471
  20
276.798317148231
 10
3336.64686219429
  20
276.597793100671
 10
3335.92391052502
  20
276.422652898419
 10
3335.1810730585
  20
276.272753735032
 10
3334.41838549636
  20
276.147952804067
 10
3333.63677409705
  20
276.047668962635
 10
3332.84072734643
  20
275.969567722073
 10
3332.03562428719
  20
275.910876257272
 10
3331.22684396203
  20
275.868821743123
 10
3330.41976541365
  20
275.840631354518
 10
3329.61976768476
  20
275.823532266348
 10
3328.83222981805
  20
275.814751653504
 10
3328.06253085623
  20
275.811516690877
 10
3327.31604984199
  20
275.811054553359
 10
3326.59672386964
  20
275.811248928795
 10
3325.90272223991
  20
275.812609556853
 10
3325.23077230515
  20
275.816302690152
 10
3324.57760141769
  20
275.823494581314
 10
3323.93993692987
  20
275.835351482959
 10
3323.31450619403
  20
275.853039647709
 10
3322.69803656252
  20
275.877725328183
 10
3322.08725538766
  20
275.910574777004
 10
3321.47889002181
  20
275.95275424679
 10
3320.87021524199
  20
276.005249498687
 10
3320.26069552405
  20
276.06832432793
 10
3319.65034276853
  20
276.142062038278
 10
3319.03916887595
  20
276.226545933489
 10
3318.42718574687
  20
276.321859317322
 10
3317.81440528181
  20
276.428085493536
 10
3317.20083938131
  20
276.545307765888
 10
3316.58649994591
  20
276.673609438139
 10
3315.97139887614
  20
276.813073814046
 10
3315.35555997308
  20
276.963556103744
 10
3314.73905463996
  20
277.123999142866
 10
3314.12196618052
  20
277.293117673422
 10
3313.50437789853
  20
277.469626437423
 10
3312.88637309775
  20
277.652240176877
 10
3312.26803508193
  20
277.839673633796
 10
3311.64944715484
  20
278.030641550187
 10
3311.03069262023
  20
278.223858668062
 10
3310.41185478186
  20
278.418039729429
 10
3309.79298520873
  20
278.612323928783
 10
3309.17400853076
  20
278.807548270556
 10
3308.55481764313
  20
279.004974211664
 10
3307.935305441
  20
279.205863209024
 10
3307.31536481954
  20
279.411476719551
 10
3306.69488867392
  20
279.623076200164
 10
3306.07376989931
  20
279.841923107777
 10
3305.45190139086
  20
280.069278899307
 10
3304.82917604376
  20
280.306405031671
 10
3304.20549667028
  20
280.554340818428
 10
3303.58080575115
  20
280.813236999714
 10
3302.95505568424
  20
281.083022172306
 10
3302.32819886739
  20
281.363624932983
 10
3301.70018769846
  20
281.654973878524
 10
3301.0709745753
  20
281.956997605707
 10
3300.44051189576
  20
282.269624711309
 10
3299.80875205769
  20
282.59278379211
 10
3299.17564745894
  20
282.926403444888
 10
3298.54250120832
  20
283.269438405814
 10
3297.91601925838
  20
283.616947968632
 10
3297.30425827265
  20
283.96301756648
 10
3296.71527491464
  20
284.301732632494
 10
3296.15712584786
  20
284.627178599812
 10
3295.63786773582
  20
284.933440901572
 10
3295.16555724203
  20
285.214604970909
 10
3294.74825103002
  20
285.464756240963
 10
3294.39400576329
  20
285.677980144869
 10
3294.10771652937
  20
285.85042289208
 10
3293.88163211188
  20
285.986473797306
 10
3293.70483971841
  20
286.092582951573
 10
3293.5664265566
  20
286.175200445907
 10
3293.45547983406
  20
286.240776371331
 10
3293.36108675842
  20
286.295760818873
 10
3293.27233453729
  20
286.346603879557
 10
3293.1783103783
  20
286.399755644409
 10
3293.06810148905
  20
286.461666204454
 10
3292.93361748786
  20
286.537147343465
 10
3292.77805763573
  20
286.6244576162
 10
3292.60744360436
  20
286.720217270169
 10
3292.42779706545
  20
286.821046552877
 10
3292.2451396907
  20
286.923565711831
 10
3292.06549315179
  20
287.024394994539
 10
3291.89487912042
  20
287.120154648507
 10
3291.73931926829
  20
287.207464921243
 10
3291.6048352671
  20
287.282946060254
 10
3291.49594337061
  20
287.344063251169
 10
3291.4111381609
  20
287.391661432112
 10
3291.34740880213
  20
287.427430479329
 10
3291.30174445844
  20
287.453060269068
 10
3291.27113429398
  20
287.470240677574
 10
3291.25256747292
  20
287.480661581094
 10
3291.24303315941
  20
287.486012855875
 10
3291.23952051758
  20
287.487984378162
 10
3291.23901871161
  20
287.488266024203
 10
3291.23901871161
  20
287.481736596265
 10
3291.23901871161
  20
287.436030600696
 10
3291.23901871161
  20
287.311971469868
 10
3291.23901871161
  20
287.070382636148
 10
3291.23901871161
  20
286.672087531908
 10
3291.23901871161
  20
286.077909589518
 10
3291.23901871161
  20
285.248672241346
 10
3291.23901871161
  20
284.145198919764
 10
3291.23901871161
  20
282.72831305714
 10
3291.23901871161
  20
280.97842636966
 10
3291.23901871161
  20
278.954303708769
 10
3291.23901871161
  20
276.734298209727
 10
3291.23901871161
  20
274.396763007795
 10
3291.23901871161
  20
272.020051238232
 10
3291.23901871161
  20
269.6825160363
 10
3291.23901871161
  20
267.462510537258
 10
3291.23901871161
  20
265.438387876367
 10
3291.23901871161
  20
263.688501188887
 10
3291.24024446691
  20
262.271008398879
 10
3291.24882475405
  20
261.163286585606
 10
3291.27211410486
  20
260.322517617133
 10
3291.31746705117
  20
259.705883361523
 10
3291.39223812481
  20
259.27056568684
 10
3291.50378185761
  20
258.973746461149
 10
3291.65945278142
  20
258.772607552513
 10
3291.86660542806
  20
258.624330828997
 10
3292.13259432936
  20
258.486098158664
 10
3292.46244547878
  20
258.322963614768
 10
3292.85187071614
  20
258.131470091328
 10
3293.29425334293
  20
257.91603268755
 10
3293.78297666058
  20
257.681066502641
 10
3294.31142397057
  20
257.43098663581
 10
3294.87297857434
  20
257.170208186263
 10
3295.46102377336
  20
256.903146253208
 10
3296.06894286908
  20
256.634215935853
 10
3296.69011916296
  20
256.367832333404
 10
3297.3190347727
  20
256.107682628893
 10
3297.95456708098
  20
255.854542340644
 10
3298.59669228673
  20
255.608459070805
 10
3299.24538658888
  20
255.369480421523
 10
3299.90062618634
  20
255.137653994947
 10
3300.56238727806
  20
254.913027393223
 10
3301.23064606294
  20
254.695648218501
 10
3301.90537873993
  20
254.485564072927
 10
3302.58656150794
  20
254.282822558649
 10
3303.27404759369
  20
254.087324504526
 10
3303.96719833502
  20
253.898383646261
 10
3304.66525209758
  20
253.715166946268
 10
3305.367447247
  20
253.53684136696
 10
3306.0730221489
  20
253.362573870751
 10
3306.78121516894
  20
253.191531420054
 10
3307.49126467274
  20
253.022880977284
 10
3308.20240902594
  20
252.855789504854
 10
3308.91388659417
  20
252.689423965178
 10
3309.6250944169
  20
252.523264701475
 10
3310.33606422889
  20
252.358045580192
 10
3311.04698643873
  20
252.194813848578
 10
3311.75805145502
  20
252.034616753887
 10
3312.46944968634
  20
251.878501543368
 10
3313.18137154129
  20
251.727515464273
 10
3313.89400742845
  20
251.582705763854
 10
3314.60754775642
  20
251.445119689362
 10
3315.32218293379
  20
251.315804488048
 10
3316.03804981673
  20
251.195630882533
 10
3316.75507105176
  20
251.08476349691
 10
3317.47311573297
  20
250.983190430642
 10
3318.19205295444
  20
250.890899783194
 10
3318.91175181029
  20
250.807879654027
 10
3319.63208139459
  20
250.734118142605
 10
3320.35291080144
  20
250.669603348391
 10
3321.07410912493
  20
250.614323370849
 10
3321.79554545917
  20
250.56826630944
 10
3322.51925677938
  20
250.531251672689
 10
3323.25595158541
  20
250.502424605357
 10
3324.01850625822
  20
250.480761661268
 10
3324.81979717879
  20
250.465239394243
 10
3325.6727007281
  20
250.454834358106
 10
3326.59009328713
  20
250.448523106678
 10
3327.58485123686
  20
250.445282193783
 10
3328.66985095825
  20
250.444088173242
 10
3329.85796883229
  20
250.443917598879
 10
3331.15709293156
  20
250.445038232775
 10
3332.555158095
  20
250.452882670046
 10
3334.03511085317
  20
250.474174714068
 10
3335.57989773664
  20
250.515638168214
 10
3337.17246527594
  20
250.583996835862
 10
3338.79576000165
  20
250.685974520385
 10
3340.4327284443
  20
250.828295025159
 10
3342.06631713447
  20
251.01768215356
 10
3343.67947260269
  20
251.260859708961
 10
3345.25798560786
  20
251.563444744803
 10
3346.79902382219
  20
251.92662731478
 10
3348.30259914621
  20
252.350490722651
 10
3349.76872348045
  20
252.835118272174
 10
3351.19740872545
  20
253.380593267108
 10
3352.58866678176
  20
253.986999011212
 10
3353.94250954991
  20
254.654418808244
 10
3355.25894893043
  20
255.382935961963
 10
3356.53799682386
  20
256.172633776127
 10
3357.78035337846
  20
257.022441202413
 10
3358.98947173337
  20
257.926669784157
 10
3360.16949327545
  20
258.878476712617
 10
3361.32455939154
  20
259.871019179046
 10
3362.45881146851
  20
260.897454374701
 10
3363.57639089322
  20
261.950939490838
 10
3364.68143905253
  20
263.02463171871
 10
3365.77809733329
  20
264.111688249574
 10
3366.87050712235
  20
265.205266274685
 10
3367.96099695813
  20
266.300363601679
 10
3369.04464398515
  20
267.399340503718
 10
3370.11471249953
  20
268.506397870344
 10
3371.16446679733
  20
269.625736591099
 10
3372.18717117465
  20
270.761557555527
 10
3373.17608992758
  20
271.918061653168
 10
3374.1244873522
  20
273.099449773566
 10
3375.02562774461
  20
274.309922806264
 10
3375.87277540089
  20
275.553681640802
 10
3376.66032120128
  20
276.834232968736
 10
3377.38716236272
  20
278.152306689664
 10
3378.05332268625
  20
279.507938505198
 10
3378.65882597297
  20
280.901164116948
 10
3379.20369602395
  20
282.332019226525
 10
3379.68795664025
  20
283.800539535539
 10
3380.11163162295
  20
285.306760745603
 10
3380.47474477313
  20
286.850718558326
 10
3380.77731989185
  20
288.43244867532
 10
3381.02049744726
  20
290.05187175967
 10
3381.20988457566
  20
291.70844832037
 10
3381.35220508043
  20
293.401523827887
 10
3381.45418276495
  20
295.130443752688
 10
3381.5225414326
  20
296.894553565242
 10
3381.56400488675
  20
298.693198736018
 10
3381.58529693077
  20
300.525724735482
 10
3381.59314136804
  20
302.391477034102
 10
3381.59426200194
  20
304.289801102347
 10
3381.59032589934
  20
306.221214613574
 10
3381.56277318117
  20
308.190924052696
 10
3381.48798723186
  20
310.205308107519
 10
3381.34235143584
  20
312.270745465844
 10
3381.10224917753
  20
314.393614815477
 10
3380.74406384136
  20
316.580294844221
 10
3380.24417881175
  20
318.837164239879
 10
3379.57897747315
  20
321.170601690256
 10
3378.72484320998
  20
323.586985883154
 10
3377.64234359305
  20
326.099938966534
 10
3376.22878293879
  20
328.752056928974
 10
3374.36564975001
  20
331.593179219209
 10
3371.93443252952
  20
334.673145285974
 10
3368.81661978013
  20
338.041794578004
 10
3364.89370000465
  20
341.748966544034
 10
3360.0471617059
  20
345.844500632798
 10
3354.15849338667
  20
350.378236293032
 10
3347.1091835498
  20
355.400012973469
  0
LINE
  5
4B1
100
AcDbEntity
  8
AM_6
100
AcDbLine
  6
BYLAYER
 10
2465.86433095512
 20
501.927617386956
 11
3060.12537281175
 21
501.927617386956
  0
LINE
  5
4B2
100
AcDbEntity
  8
AM_6
100
AcDbLine
  6
BYLAYER
 10
2927.55229637067
 20
261.583248600779
 11
2999.21079197565
 21
261.583248600779
  0
LINE
  5
4B3
100
AcDbEntity
  8
AM_6
100
AcDbLine
  6
BYLAYER
 10
3060.12537281175
 20
501.927617386956
 11
3060.12537281175
 21
269.573376211954
  0
LINE
  5
4B4
100
AcDbEntity
  8
AM_6
100
AcDbLine
  6
BYLAYER
 10
2927.55229637067
 20
261.583248600779
 11
2927.55229637067
 21
251.927426634178
  0
LINE
  5
4B5
100
AcDbEntity
  8
AM_6
100
AcDbLine
  6
BYLAYER
 10
2465.86433095512
 20
261.583248600779
 11
2895.46165355445
 21
261.583248600779
  0
LINE
  5
4B6
100
AcDbEntity
  8
AM_6
100
AcDbLine
  6
BYLAYER
 10
3060.12537281175
 20
269.573376211954
 11
3030.54615768361
 21
269.573376211954
  0
LINE
  5
4B7
100
AcDbEntity
  8
AM_6
100
AcDbLine
  6
BYLAYER
 10
3060.12537281175
 20
261.583248600776
 11
3060.12537281175
 21
251.927426634178
  0
LINE
  5
4B8
100
AcDbEntity
  8
AM_6
100
AcDbLine
  6
BYLAYER
 10
2895.46165355445
 20
269.573376211954
 11
2465.86433095512
 21
269.573376211954
  0
LINE
  5
4B9
100
AcDbEntity
  8
AM_6
100
AcDbLine
  6
BYLAYER
 10
2927.55229637067
 20
438.206132800543
 11
2927.55229637067
 21
368.138526229798
  0
LWPOLYLINE
  5
4BA
100
AcDbEntity
  8
AM_6
100
AcDbPolyline
  6
BYLAYER
 90
     10
 10
3001.66557378036
  20
251.927426634178
 10
3001.54418103684
  20
252.558494734054
 10
3001.3903626658
  20
253.310871883372
 10
3001.20179813721
  20
254.179904311748
 10
3000.97616692104
  20
255.160938248799
 10
3000.71114848727
  20
256.249319924143
 10
3000.40442230588
  20
257.440395567396
 10
3000.05366784683
  20
258.729511408175
 10
2999.6565645801
  20
260.112013676097
 10
2999.21079197565
  20
261.583248600779
  0
LINE
  5
4BB
100
AcDbEntity
  8
AM_6
100
AcDbLine
  6
BYLAYER
 10
2465.86433095512
 20
261.583248600779
 11
2465.86433095512
 21
251.927426634178
  0
LINE
  5
4BC
100
AcDbEntity
  8
AM_6
100
AcDbLine
  6
BYLAYER
 10
3033.84610833062
 20
261.583248600775
 11
3060.12537281175
 21
261.583248600776
  0
LINE
  5
4BD
100
AcDbEntity
  8
AM_6
100
AcDbLine
  6
BYLAYER
 10
2465.86433095512
 20
251.927426634178
 11
2895.46165355445
 21
251.927426634178
  0
LINE
  5
4BE
100
AcDbEntity
  8
AM_6
100
AcDbLine
  6
BYLAYER
 10
2927.55229637067
 20
269.573376211954
 11
2996.3840210958
 21
269.573376211954
  0
LINE
  5
4BF
100
AcDbEntity
  8
AM_6
100
AcDbLine
  6
BYLAYER
 10
2895.46165355445
 20
438.206132800543
 11
2927.55229637067
 21
438.206132800543
  0
LWPOLYLINE
  5
4C0
100
AcDbEntity
  8
AM_6
100
AcDbPolyline
  6
BYLAYER
 90
     10
 10
2948.19562823906
  20
353.37283980828
 10
2960.40505648304
  20
347.955324995169
 10
2971.85485949661
  20
341.428854529314
 10
2982.54280136958
  20
333.851530472862
 10
2992.46664619174
  20
325.281454887963
 10
3001.6241580529
  20
315.776729836765
 10
3010.01310104286
  20
305.395457381416
 10
3017.63123925143
  20
294.195739584066
 10
3024.47633676842
  20
282.235678506862
 10
3030.54615768361
  20
269.573376211954
  0
LINE
  5
4C1
100
AcDbEntity
  8
AM_6
100
AcDbLine
  6
BYLAYER
 10
3037.35220779619
 20
251.927426634178
 11
3060.12537281175
 21
251.927426634178
  0
LINE
  5
4C2
100
AcDbEntity
  8
AM_6
100
AcDbLine
  6
BYLAYER
 10
2927.55229637067
 20
335.773159518156
 11
2927.55229637067
 21
269.573376211954
  0
LINE
  5
4C3
100
AcDbEntity
  8
AM_6
100
AcDbLine
  6
BYLAYER
 10
2927.55229637067
 20
251.927426634178
 11
3001.66557378036
 21
251.927426634178
  0
LINE
  5
4C4
100
AcDbEntity
  8
AM_6
100
AcDbLine
  6
BYLAYER
 10
2993.58001576342
 20
438.206132800543
 11
2927.55229637067
 21
368.138526229798
  0
LINE
  5
4C5
100
AcDbEntity
  8
AM_6
100
AcDbLine
  6
BYLAYER
 10
2895.46165355445
 20
269.573376211954
 11
2895.46165355445
 21
438.206132800543
  0
LINE
  5
4C6
100
AcDbEntity
  8
AM_6
100
AcDbLine
  6
BYLAYER
 10
3033.17495867047
 20
438.206132800543
 11
2948.19562823906
 21
353.37283980828
  0
LINE
  5
4C7
100
AcDbEntity
  8
AM_6
100
AcDbLine
  6
BYLAYER
 10
2993.58001576342
 20
438.206132800543
 11
3033.17495867047
 21
438.206132800543
  0
INSERT
  5
4C8
100
AcDbEntity
  8
CONT_S_2
100
AcDbBlockReference
  6
BYLAYER
  2
基礎_600□650正
 10
2793.54094691941
 20
2021.92752201056
 30
0.0
  0
INSERT
  5
4C9
100
AcDbEntity
  8
CONT_S_2
100
AcDbBlockReference
  6
BYLAYER
  2
基礎_600□650横
 10
3833.54094691946
 20
2021.92752201056
 30
0.0
  0
LINE
  5
4CA
100
AcDbEntity
  8
CONT_S_2
100
AcDbLine
  6
BYLAYER
 10
564.540946919421
 20
2721.92752201056
 11
4262.54094691947
 21
2721.92752201056
  0
LINE
  5
4CB
100
AcDbEntity
  8
AM_0
100
AcDbLine
  6
DASHED2
 10
1011.54094691941
 20
3436.92751725301
 11
1011.54094691941
 21
4691.92752201056
  0
LINE
  5
4CC
100
AcDbEntity
  8
AM_0
100
AcDbLine
  6
BYLAYER
 10
2739.54094691941
 20
4596.92752201057
 11
2739.54094691941
 21
3511.92752201056
  0
LINE
  5
4CD
100
AcDbEntity
  8
AM_0
100
AcDbLine
  6
BYLAYER
 10
1037.5409533811
 20
4696.92752201057
 11
2745.54094045772
 21
4696.92752201056
  0
LINE
  5
4CE
100
AcDbEntity
  8
AM_0
100
AcDbLine
  6
BYLAYER
 10
2748.54094691941
 20
4691.92752201056
 11
2748.54094691942
 21
2721.92752201056
  0
LINE
  5
4CF
100
AcDbEntity
  8
AM_0
100
AcDbLine
  6
BYLAYER
 10
2838.54094691941
 20
4691.92752201056
 11
2838.54094691942
 21
2721.92752201056
  0
LINE
  5
4D0
100
AcDbEntity
  8
AM_0
100
AcDbLine
  6
BYLAYER
 10
1034.54094691941
 20
4596.92752201056
 11
2748.54094691941
 21
4596.92752201057
  0
LINE
  5
4D1
100
AcDbEntity
  8
AM_0
100
AcDbLine
  6
BYLAYER
 10
1865.54094691941
 20
3493.42751725301
 11
1865.54094691941
 21
3457.42751725301
  0
LINE
  5
4D2
100
AcDbEntity
  8
AM_0
100
AcDbLine
  6
BYLAYER
 10
2709.24094691941
 20
3460.62751725302
 11
2726.84094691941
 21
3460.62751725302
  0
LINE
  5
4D3
100
AcDbEntity
  8
AM_0
100
AcDbLine
  6
BYLAYER
 10
2726.84094691941
 20
3474.22751725301
 11
2709.24094691941
 21
3474.22751725301
  0
LINE
  5
4D4
100
AcDbEntity
  8
AM_0
100
AcDbLine
  6
BYLAYER
 10
2735.54094691941
 20
3476.92751725301
 11
2700.54094691941
 21
3476.92751725301
  0
LINE
  5
4D5
100
AcDbEntity
  8
AM_0
100
AcDbLine
  6
BYLAYER
 10
2708.24094691941
 20
3473.22751725301
 11
2708.24094691941
 21
3461.62751725302
  0
LINE
  5
4D6
100
AcDbEntity
  8
AM_0
100
AcDbLine
  6
BYLAYER
 10
2699.54094691941
 20
3475.92751725301
 11
2699.54094691941
 21
3456.92751725301
  0
ARC
  5
4D7
100
AcDbEntity
  8
AM_0
100
AcDbCircle
  6
BYLAYER
 10
2709.24094691941
 20
3461.62751725302
 40
1
100
AcDbArc
 50
180
 51
270
  0
ARC
  5
4D8
100
AcDbEntity
  8
AM_0
100
AcDbCircle
  6
BYLAYER
 10
2709.24094691941
 20
3473.22751725301
 40
1
100
AcDbArc
 50
90
 51
180
  0
ARC
  5
4D9
100
AcDbEntity
  8
AM_0
100
AcDbCircle
  6
BYLAYER
 10
2700.54094691941
 20
3475.92751725301
 40
1
100
AcDbArc
 50
90
 51
180
  0
LINE
  5
4DA
100
AcDbEntity
  8
AM_0
100
AcDbLine
  6
BYLAYER
 10
2736.54094691941
 20
3475.92751725301
 11
2736.54094691941
 21
3456.92751725301
  0
LINE
  5
4DB
100
AcDbEntity
  8
AM_0
100
AcDbLine
  6
BYLAYER
 10
2727.84094691941
 20
3461.62751725302
 11
2727.84094691941
 21
3473.22751725301
  0
ARC
  5
4DC
100
AcDbEntity
  8
AM_0
100
AcDbCircle
  6
BYLAYER
 10
2726.84094691941
 20
3461.62751725302
 40
1
100
AcDbArc
 50
270
 51
0
  0
ARC
  5
4DD
100
AcDbEntity
  8
AM_0
100
AcDbCircle
  6
BYLAYER
 10
2726.84094691941
 20
3473.22751725301
 40
1
100
AcDbArc
 50
0
 51
90
  0
ARC
  5
4DE
100
AcDbEntity
  8
AM_0
100
AcDbCircle
  6
BYLAYER
 10
2735.54094691941
 20
3475.92751725301
 40
1
100
AcDbArc
 50
0
 51
90
  0
LINE
  5
4DF
100
AcDbEntity
  8
AM_0
100
AcDbLine
  6
BYLAYER
 10
1034.54094691941
 20
4691.92752201056
 11
1034.54094691941
 21
2721.92752201056
  0
LINE
  5
4E0
100
AcDbEntity
  8
AM_0
100
AcDbLine
  6
BYLAYER
 10
944.540946919412
 20
4691.92752201056
 11
944.54094691941
 21
2721.92752201056
  0
LINE
  5
4E1
100
AcDbEntity
  8
AM_0
100
AcDbLine
  6
BYLAYER
 10
2748.54094691942
 20
3436.92751725301
 11
1034.54094691941
 21
3436.92751725301
  0
LINE
  5
4E2
100
AcDbEntity
  8
AM_0
100
AcDbLine
  6
DASHED2
 10
1034.54094691941
 20
3436.92751725301
 11
1011.54094691941
 21
3436.92751725301
  0
LINE
  5
4E3
100
AcDbEntity
  8
AM_0
100
AcDbLine
  6
BYLAYER
 10
1073.84094691941
 20
3460.62751725302
 11
1056.24094691941
 21
3460.62751725302
  0
LINE
  5
4E4
100
AcDbEntity
  8
AM_0
100
AcDbLine
  6
BYLAYER
 10
1056.24094691941
 20
3474.22751725301
 11
1073.84094691941
 21
3474.22751725301
  0
LINE
  5
4E5
100
AcDbEntity
  8
AM_0
100
AcDbLine
  6
BYLAYER
 10
1047.54094691941
 20
3476.92751725301
 11
1082.54094691941
 21
3476.92751725301
  0
LINE
  5
4E6
100
AcDbEntity
  8
AM_0
100
AcDbLine
  6
BYLAYER
 10
1074.84094691941
 20
3473.22751725301
 11
1074.84094691941
 21
3461.62751725302
  0
LINE
  5
4E7
100
AcDbEntity
  8
AM_0
100
AcDbLine
  6
BYLAYER
 10
1083.54094691941
 20
3475.92751725301
 11
1083.54094691941
 21
3456.92751725301
  0
ARC
  5
4E8
100
AcDbEntity
  8
AM_0
100
AcDbCircle
  6
BYLAYER
 10
1073.84094691941
 20
3461.62751725302
 40
1
100
AcDbArc
 50
270
 51
0
  0
ARC
  5
4E9
100
AcDbEntity
  8
AM_0
100
AcDbCircle
  6
BYLAYER
 10
1073.84094691941
 20
3473.22751725301
 40
1
100
AcDbArc
 50
0
 51
90
  0
ARC
  5
4EA
100
AcDbEntity
  8
AM_0
100
AcDbCircle
  6
BYLAYER
 10
1082.54094691941
 20
3475.92751725301
 40
1
100
AcDbArc
 50
0
 51
90
  0
LINE
  5
4EB
100
AcDbEntity
  8
AM_0
100
AcDbLine
  6
BYLAYER
 10
1046.54094691941
 20
3475.92751725301
 11
1046.54094691941
 21
3456.92751725301
  0
LINE
  5
4EC
100
AcDbEntity
  8
AM_0
100
AcDbLine
  6
BYLAYER
 10
1055.24094691941
 20
3461.62751725302
 11
1055.24094691941
 21
3473.22751725301
  0
ARC
  5
4ED
100
AcDbEntity
  8
AM_0
100
AcDbCircle
  6
BYLAYER
 10
1056.24094691941
 20
3461.62751725302
 40
1
100
AcDbArc
 50
180
 51
270
  0
ARC
  5
4EE
100
AcDbEntity
  8
AM_0
100
AcDbCircle
  6
BYLAYER
 10
1056.24094691941
 20
3473.22751725301
 40
1
100
AcDbArc
 50
90
 51
180
  0
ARC
  5
4EF
100
AcDbEntity
  8
AM_0
100
AcDbCircle
  6
BYLAYER
 10
1047.54094691941
 20
3475.92751725301
 40
1
100
AcDbArc
 50
90
 51
180
  0
LINE
  5
4F0
100
AcDbEntity
  8
AM_0
100
AcDbLine
  6
BYLAYER
 10
2748.54094691942
 20
3456.92751725301
 11
1865.54094691941
 21
3456.92751725301
  0
LINE
  5
4F1
100
AcDbEntity
  8
AM_0
100
AcDbLine
  6
BYLAYER
 10
1864.34094691941
 20
3456.92751725301
 11
1034.54094691941
 21
3456.92751725301
  0
LINE
  5
4F2
100
AcDbEntity
  8
AM_0
100
AcDbLine
  6
BYLAYER
 10
2748.54094691942
 20
3493.42751725301
 11
1865.54094691941
 21
3493.42751725301
  0
LINE
  5
4F3
100
AcDbEntity
  8
AM_0
100
AcDbLine
  6
BYLAYER
 10
1864.34094691941
 20
3493.42751725301
 11
1034.54094691941
 21
3493.42751725301
  0
LINE
  5
4F4
100
AcDbEntity
  8
AM_0
100
AcDbLine
  6
BYLAYER
 10
2748.54094691941
 20
3511.92752201056
 11
1034.54094691941
 21
3511.92752201056
  0
LINE
  5
4F5
100
AcDbEntity
  8
AM_0
100
AcDbLine
  6
BYLAYER
 10
1864.34094691941
 20
3456.42751725301
 11
1864.34094691941
 21
3493.42751725301
  0
LINE
  5
4F6
100
AcDbEntity
  8
AM_0
100
AcDbLine
  6
BYLAYER
 10
1865.54094691941
 20
3455.92751725301
 11
1865.54094691941
 21
3493.92751725301
  0
LINE
  5
4F7
100
AcDbEntity
  8
AM_0
100
AcDbLine
  6
BYLAYER
 10
1864.84094691941
 20
3455.92751725301
 11
1865.54094691941
 21
3455.92751725301
  0
ARC
  5
4F8
100
AcDbEntity
  8
AM_0
100
AcDbCircle
  6
BYLAYER
 10
1864.84094691941
 20
3456.42751725301
 40
0.5
100
AcDbArc
 50
180
 51
270
  0
LINE
  5
4F9
100
AcDbEntity
  8
AM_0
100
AcDbLine
  6
BYLAYER
 10
1864.84094691941
 20
3493.92751725301
 11
1865.54094691941
 21
3493.92751725301
  0
ARC
  5
4FA
100
AcDbEntity
  8
AM_0
100
AcDbCircle
  6
BYLAYER
 10
1864.84094691941
 20
3493.42751725301
 40
0.5
100
AcDbArc
 50
90
 51
180
  0
LINE
  5
4FB
100
AcDbEntity
  8
AM_0
100
AcDbLine
  6
BYLAYER
 10
1043.54094691941
 20
4596.92752201057
 11
1043.54094691941
 21
3511.92752201056
  0
LINE
  5
4FC
100
AcDbEntity
  8
AM_0
100
AcDbLine
  6
BYLAYER
 10
1865.54094691941
 20
4596.92752201057
 11
1865.54094691941
 21
3493.42751725301
  0
LINE
  5
4FD
100
AcDbEntity
  8
AM_0
100
AcDbLine
  6
DASHED2
 10
2771.54094691941
 20
3436.92751725301
 11
2771.54094691941
 21
4691.92752201056
  0
LINE
  5
4FE
100
AcDbEntity
  8
AM_0
100
AcDbLine
  6
DASHED2
 10
2748.54094691941
 20
3436.92751725301
 11
2771.54094691941
 21
3436.92751725301
  0
LINE
  5
4FF
100
AcDbEntity
  8
AM_0
100
AcDbLine
  6
BYLAYER
 10
1917.54094691941
 20
4596.92752201057
 11
1917.54094691941
 21
3493.42751725301
  0
LINE
  5
500
100
AcDbEntity
  8
AM_0
100
AcDbLine
  6
BYLAYER
 10
2748.54094691942
 20
2721.92752201056
 11
2748.54094691942
 21
2121.92752201056
  0
LINE
  5
501
100
AcDbEntity
  8
AM_0
100
AcDbLine
  6
BYLAYER
 10
2838.54094691942
 20
2721.92752201056
 11
2838.54094691942
 21
2121.92752201056
  0
LINE
  5
502
100
AcDbEntity
  8
AM_7
100
AcDbLine
  6
BYLAYER
 10
3852.54094691946
 20
2271.92752201056
 11
3822.54094691946
 21
2271.92752201056
  0
LINE
  5
503
100
AcDbEntity
  8
AM_7
100
AcDbLine
  6
BYLAYER
 10
3837.54094691946
 20
2256.92752201056
 11
3837.54094691946
 21
2286.92752201056
  0
TEXT
  5
504
100
AcDbEntity
  8
AM_6
100
AcDbText
  6
BYLAYER
 10
580.102558640604
 20
2742.48614587025
 40
63.99999999984
 41
0.83
  1
G.L
  7
Font_0
 11
580.102558640604
 21
2774.48614587017
100
AcDbText
 73
2
  0
TEXT
  5
505
100
AcDbEntity
  8
AM_6
100
AcDbText
  6
BYLAYER
 10
772.347080487402
 20
4368.34804213026
 40
63.99999999984
 41
0.83
  1
A
  7
Font_0
 11
772.347080487402
 21
4400.34804213018
100
AcDbText
 73
2
  0
TEXT
  5
506
100
AcDbEntity
  8
AM_6
100
AcDbText
  6
BYLAYER
 10
2290.38884022802
 20
4798.66744093375
 40
63.99999999984
 41
0.83
  1
B
  7
Font_0
 11
2290.38884022802
 21
4830.66744093367
100
AcDbText
 73
2
  0
TEXT
  5
507
100
AcDbEntity
  8
AM_6
100
AcDbText
  6
BYLAYER
 10
2965.24003326491
 20
4388.00792006555
 40
63.99999999984
 41
0.83
  1
A'
  7
Font_0
 11
2965.24003326491
 21
4420.00792006547
100
AcDbText
 73
2
  0
TEXT
  5
508
100
AcDbEntity
  8
AM_6
100
AcDbText
  6
BYLAYER
 10
2290.38884022802
 20
3271.99179829065
 40
63.99999999984
 41
0.83
  1
B'
  7
Font_0
 11
2290.38884022802
 21
3303.99179829057
100
AcDbText
 73
2
  0
INSERT
  5
509
100
AcDbEntity
  8
AM_0
100
AcDbBlockReference
  6
BYLAYER
  2
柱キャップ_正
 10
2793.54094045772
 20
4696.92752201056
 30
0.0
  0
INSERT
  5
50A
100
AcDbEntity
  8
AM_0
100
AcDbBlockReference
  6
BYLAYER
  2
柱キャップ_正
 10
989.540953381097
 20
4696.92752201056
 30
0.0
 41
-1
  0
INSERT
  5
50B
100
AcDbEntity
  8
AM_0
100
AcDbBlockReference
  6
BYLAYER
  2
プッシュ錠PV
 10
1891.54094691941
 20
3471.42751725301
 30
0.0
 41
5
 42
5
  0
INSERT
  5
50C
100
AcDbEntity
  8
CONT_S_2
100
AcDbBlockReference
  6
BYLAYER
  2
基礎_600□650正
 10
989.54094691941
 20
2021.92752201056
 30
0.0
  0
LINE
  5
50D
100
AcDbEntity
  8
AM_0
100
AcDbLine
  6
BYLAYER
 10
944.54094691941
 20
2721.92752201056
 11
944.540946919413
 21
2121.92752201056
  0
LINE
  5
50E
100
AcDbEntity
  8
AM_0
100
AcDbLine
  6
BYLAYER
 10
1034.54094691941
 20
2721.92752201056
 11
1034.54094691941
 21
2121.92752201056
  0
TEXT
  5
50F
100
AcDbEntity
  8
AM_6
100
AcDbText
  6
BYLAYER
 10
4674.85739456175
 20
3270.11881793891
 40
63.99999999984
 41
0.83
  1
本体
  7
Font_0
100
AcDbText
  0
INSERT
  5
510
100
AcDbEntity
  8
CONT_S_4
100
AcDbBlockReference
  6
BYLAYER
  2
戸車_XR1987_SV
 10
5439.04005354515
 20
1055.11881793891
 30
0.0
 41
6.66666666666666
 42
6.66666666666666
  0
INSERT
  5
511
100
AcDbEntity
  8
AM_0
100
AcDbBlockReference
  6
BYLAYER
  2
下枠_KE1032
 10
5625.70672021182
 20
911.78548460558
 30
0.0
 41
6.66666666666666
 42
6.66666666666666
  0
INSERT
  5
512
100
AcDbEntity
  8
CONT_S_4
100
AcDbBlockReference
  6
BYLAYER
  2
はかま_KE1029
 10
5439.04005354516
 20
1195.11881793891
 30
0.0
 41
6.66666666666666
 42
6.66666666666666
  0
INSERT
  5
513
100
AcDbEntity
  8
CONT_S_4
100
AcDbBlockReference
  6
BYLAYER
  2
戸車_XR1987_SV
 10
5509.04005354515
 20
1055.11881793891
 30
0.0
 41
6.66666666666666
 42
6.66666666666666
  0
INSERT
  5
514
100
AcDbEntity
  8
CONT_S_4
100
AcDbBlockReference
  6
BYLAYER
  2
はかま_KE1029
 10
5509.04005354513
 20
1195.11881793891
 30
0.0
 41
6.66666666666666
 42
6.66666666666666
  0
LINE
  5
515
100
AcDbEntity
  8
AM_7
100
AcDbLine
  6
BYLAYER
 10
5689.04005354515
 20
1378.45215127224
 11
5689.04005354515
 21
1511.78548460558
  0
INSERT
  5
516
100
AcDbEntity
  8
AM_0
100
AcDbBlockReference
  6
BYLAYER
  2
柱キャップ_横
 10
5692.37338687848
 20
3045.11881793892
 30
0.0
 41
6.66666666666666
 42
6.66666666666666
  0
LINE
  5
517
100
AcDbEntity
  8
AM_0
100
AcDbLine
  6
BYLAYER
 10
5365.70672021181
 20
3011.78548460557
 11
5365.70672021181
 21
1958.45215127224
  0
LINE
  5
518
100
AcDbEntity
  8
AM_0
100
AcDbLine
  6
BYLAYER
 10
6019.04005354515
 20
3011.78548460557
 11
6019.04005354515
 21
1958.45215127224
  0
LINE
  5
519
100
AcDbEntity
  8
AM_0
100
AcDbLine
  6
PHANTOM2
 10
5305.70672021182
 20
1958.45215127224
 11
6079.02292415313
 21
1958.45215127224
  0
LINE
  5
51A
100
AcDbEntity
  8
AM_0
100
AcDbLine
  6
PHANTOM2
 10
5305.70672021182
 20
1898.45215127224
 11
6079.02292415313
 21
1898.45215127224
  0
LINE
  5
51B
100
AcDbEntity
  8
AM_0
100
AcDbLine
  6
BYLAYER
 10
5365.70672021181
 20
1898.45215127225
 11
5365.70672021181
 21
1195.78548460574
  0
LINE
  5
51C
100
AcDbEntity
  8
AM_0
100
AcDbLine
  6
BYLAYER
 10
6019.04005354515
 20
1898.45215127225
 11
6019.04005354516
 21
807.010751869637
  0
LINE
  5
51D
100
AcDbEntity
  8
AM_0
100
AcDbLine
  6
BYLAYER
 10
5492.37338687847
 20
2438.45215127225
 11
5525.70672021181
 21
2438.45215127225
  0
INSERT
  5
51E
100
AcDbEntity
  8
CONT_S_4
100
AcDbBlockReference
  6
BYLAYER
  2
KGP-03BSV
 10
5474.04005354514
 20
2376.45215127225
 30
0.0
 41
6.66666666666666
 42
6.66666666666666
  0
LINE
  5
51F
100
AcDbEntity
  8
AM_0
100
AcDbLine
  6
BYLAYER
 10
5492.37338687846
 20
1211.78548460557
 11
5492.37338687847
 21
1898.45215127225
  0
LINE
  5
520
100
AcDbEntity
  8
AM_0
100
AcDbLine
  6
BYLAYER
 10
5492.37338687847
 20
1958.45215127224
 11
5492.37338687847
 21
2438.45215127225
  0
LINE
  5
521
100
AcDbEntity
  8
AM_0
100
AcDbLine
  6
BYLAYER
 10
5422.37338687849
 20
1211.78548460557
 11
5422.37338687848
 21
1898.45215127225
  0
LINE
  5
522
100
AcDbEntity
  8
AM_0
100
AcDbLine
  6
BYLAYER
 10
5422.37338687848
 20
1958.45215127224
 11
5422.37338687847
 21
2438.45215127225
  0
LINE
  5
523
100
AcDbEntity
  8
AM_0
100
AcDbLine
  6
BYLAYER
 10
5422.37338687847
 20
2438.45215127225
 11
5455.70672021181
 21
2438.45215127225
  0
LINE
  5
524
100
AcDbEntity
  8
AM_0
100
AcDbLine
  6
BYLAYER
 10
5968.37338687849
 20
1898.45215127224
 11
5968.37338687849
 21
1345.11881794179
  0
INSERT
  5
525
100
AcDbEntity
  8
CONT_S_4
100
AcDbBlockReference
  6
BYLAYER
  2
引き手_TP1227__A3_SV
 10
5409.37338687849
 20
1171.78548460557
 30
0.0
 41
6.66666666666666
 42
6.66666666666666
  0
INSERT
  5
526
100
AcDbEntity
  8
CONT_S_4
100
AcDbBlockReference
  6
BYLAYER
  2
引き手_TP1227__A3_SV
 10
5479.37338687849
 20
1171.78548460557
 30
0.0
 41
6.66666666666666
 42
6.66666666666666
  0
LINE
  5
527
100
AcDbEntity
  8
AM_0
100
AcDbLine
  6
BYLAYER
 10
5492.37338687846
 20
1211.78548460557
 11
5525.70672021179
 21
1211.78548460557
  0
LINE
  5
528
100
AcDbEntity
  8
AM_0
100
AcDbLine
  6
BYLAYER
 10
5455.70672021182
 20
1211.78548460557
 11
5455.70672021181
 21
1898.45215127225
  0
LINE
  5
529
100
AcDbEntity
  8
AM_0
100
AcDbLine
  6
BYLAYER
 10
5455.70672021181
 20
1958.45215127224
 11
5455.70672021181
 21
2438.45215127225
  0
LINE
  5
52A
100
AcDbEntity
  8
AM_0
100
AcDbLine
  6
BYLAYER
 10
5525.70672021179
 20
1211.78548460557
 11
5525.7067202118
 21
1898.45215127225
  0
LINE
  5
52B
100
AcDbEntity
  8
AM_0
100
AcDbLine
  6
BYLAYER
 10
5525.7067202118
 20
1958.45215127224
 11
5525.70672021181
 21
2438.45215127225
  0
LINE
  5
52C
100
AcDbEntity
  8
AM_0
100
AcDbLine
  6
BYLAYER
 10
5422.37338687849
 20
1211.78548460557
 11
5455.70672021182
 21
1211.78548460557
  0
LINE
  5
52D
100
AcDbEntity
  8
AM_0
100
AcDbLine
  6
BYLAYER
 10
5925.70672021182
 20
2498.45215126937
 11
5925.70672021182
 21
1958.45215127224
  0
LINE
  5
52E
100
AcDbEntity
  8
AM_0
100
AcDbLine
  6
BYLAYER
 10
5925.70672021182
 20
1898.45215127224
 11
5925.70672021182
 21
1345.11881794178
  0
INSERT
  5
52F
100
AcDbEntity
  8
CONT_S_4
100
AcDbBlockReference
  6
BYLAYER
  2
先付けビ_ドA_TP1330_
 10
5901.70672021181
 20
2459.78548460271
 30
0.0
 41
-6.66666666666666
 42
6.66666666666666
 50
270
  0
INSERT
  5
530
100
AcDbEntity
  8
CONT_S_4
100
AcDbBlockReference
  6
BYLAYER
  2
先付けビ_ドA_TP1330_
 10
5901.70672021181
 20
1383.78548460558
 30
0.0
 41
6.66666666666666
 42
6.66666666666666
 50
270
  0
LINE
  5
531
100
AcDbEntity
  8
AM_0
100
AcDbLine
  6
BYLAYER
 10
5919.04005354516
 20
1418.45215127225
 11
5891.04005354516
 21
1418.45215127225
  0
LINE
  5
532
100
AcDbEntity
  8
AM_0
100
AcDbLine
  6
DASHED2
 10
5982.37338687849
 20
2425.11881793891
 11
5972.13406431275
 21
2425.11881793891
  0
LINE
  5
533
100
AcDbEntity
  8
AM_0
100
AcDbLine
  6
BYLAYER
 10
5919.04005354516
 20
2425.11881793891
 11
5891.04005354516
 21
2425.11881793891
  0
LINE
  5
534
100
AcDbEntity
  8
AM_0
100
AcDbLine
  6
BYLAYER
 10
5385.70672021182
 20
3011.78548460558
 11
5385.70672021182
 21
1958.45215127224
  0
LINE
  5
535
100
AcDbEntity
  8
AM_0
100
AcDbLine
  6
BYLAYER
 10
5385.70672021182
 20
1898.45215127224
 11
5385.70672021182
 21
1195.78548460574
  0
LINE
  5
536
100
AcDbEntity
  8
AM_0
100
AcDbLine
  6
BYLAYER
 10
5385.70672021182
 20
1074.45215127241
 11
5385.70672021182
 21
911.78548460558
  0
LINE
  5
537
100
AcDbEntity
  8
AM_0
100
AcDbLine
  6
BYLAYER
 10
5992.37338687849
 20
911.78548460558
 11
5992.37338687849
 21
1898.45215127224
  0
LINE
  5
538
100
AcDbEntity
  8
AM_0
100
AcDbLine
  6
BYLAYER
 10
5992.37338687849
 20
1958.45215127224
 11
5992.37338687849
 21
3011.78548460558
  0
LINE
  5
539
100
AcDbEntity
  8
AM_7
100
AcDbLine
  6
BYLAYER
 10
5689.04005354515
 20
2105.11881793891
 11
5689.04005354515
 21
2238.45215127224
  0
LINE
  5
53A
100
AcDbEntity
  8
AM_7
100
AcDbLine
  6
BYLAYER
 10
5755.70672021182
 20
2171.78548460557
 11
5622.37338687849
 21
2171.78548460557
  0
LINE
  5
53B
100
AcDbEntity
  8
AM_0
100
AcDbLine
  6
BYLAYER
 10
5891.04005354516
 20
1898.45215127224
 11
5891.04005354516
 21
1418.45215127225
  0
LINE
  5
53C
100
AcDbEntity
  8
AM_7
100
AcDbLine
  6
BYLAYER
 10
5755.70672021182
 20
1445.11881793891
 11
5622.37338687849
 21
1445.11881793891
  0
LINE
  5
53D
100
AcDbEntity
  8
AM_7
100
AcDbLine
  6
BYLAYER
 10
5689.04005354515
 20
1741.78548460558
 11
5689.04005354515
 21
1875.11881793891
  0
LINE
  5
53E
100
AcDbEntity
  8
AM_7
100
AcDbLine
  6
BYLAYER
 10
5755.70672021182
 20
1808.45215127224
 11
5622.37338687849
 21
1808.45215127224
  0
LINE
  5
53F
100
AcDbEntity
  8
AM_0
100
AcDbLine
  6
BYLAYER
 10
5891.04005354516
 20
2425.11881793891
 11
5891.04005354516
 21
1958.45215127224
  0
LINE
  5
540
100
AcDbEntity
  8
AM_0
100
AcDbLine
  6
BYLAYER
 10
5919.04005354516
 20
2425.11881793891
 11
5919.04005354516
 21
1958.45215127224
  0
LINE
  5
541
100
AcDbEntity
  8
AM_0
100
AcDbLine
  6
BYLAYER
 10
5919.04005354516
 20
1898.45215127224
 11
5919.04005354516
 21
1418.45215127225
  0
LINE
  5
542
100
AcDbEntity
  8
AM_0
100
AcDbLine
  6
BYLAYER
 10
5992.37338687849
 20
1418.45215127225
 11
5968.37338687849
 21
1418.45215127225
  0
LINE
  5
543
100
AcDbEntity
  8
AM_0
100
AcDbLine
  6
BYLAYER
 10
5379.04005354515
 20
911.78548460558
 11
5379.04005354515
 21
898.45215127227
  0
LINE
  5
544
100
AcDbEntity
  8
AM_0
100
AcDbLine
  6
BYLAYER
 10
5992.37338687849
 20
2425.11881793604
 11
5968.37338687849
 21
2425.11881793604
  0
LINE
  5
545
100
AcDbEntity
  8
AM_0
100
AcDbLine
  6
BYLAYER
 10
5999.04005354515
 20
911.78548460558
 11
5999.04005354515
 21
898.45215127227
  0
LINE
  5
546
100
AcDbEntity
  8
AM_7
100
AcDbLine
  6
BYLAYER
 10
5625.70672021181
 20
870.10187432525
 11
5625.70672021181
 21
971.785484605604
  0
LINE
  5
547
100
AcDbEntity
  8
AM_0
100
AcDbLine
  6
BYLAYER
 10
5999.04005354515
 20
898.45215127227
 11
5379.04005354515
 21
898.45215127227
  0
LINE
  5
548
100
AcDbEntity
  8
AM_0
100
AcDbLine
  6
BYLAYER
 10
5999.04005354515
 20
911.78548460558
 11
5379.04005354515
 21
911.78548460558
  0
LINE
  5
549
100
AcDbEntity
  8
AM_7
100
AcDbLine
  6
BYLAYER
 10
5832.37338687849
 20
870.10187432525
 11
5832.37338687849
 21
971.785484605604
  0
INSERT
  5
54A
100
AcDbEntity
  8
AM_0
100
AcDbBlockReference
  6
BYLAYER
  2
プッシュロック
 10
5436.0401867807
 20
1135.11881793907
 30
0.0
 41
6.66666666666666
 42
6.66666666666666
  0
LINE
  5
54B
100
AcDbEntity
  8
AM_0
100
AcDbLine
  6
BYLAYER
 10
5365.70672021181
 20
1074.45215127241
 11
5365.70672021181
 21
807.010751869637
  0
INSERT
  5
54C
100
AcDbEntity
  8
AM_0
100
AcDbBlockReference
  6
BYLAYER
  2
上枠_ZE8750
 10
5392.37338687847
 20
3045.11881793891
 30
0.0
 41
6.66666666666666
 42
6.66666666666666
  0
LINE
  5
54D
100
AcDbEntity
  8
AM_7
100
AcDbLine
  6
BYLAYER
 10
5961.78067403937
 20
1318.45212042837
 11
5867.70667272719
 21
1318.4522357161
  0
LINE
  5
54E
100
AcDbEntity
  8
AM_7
100
AcDbLine
  6
BYLAYER
 10
6010.6283917613
 20
1295.11881793892
 11
5952.37338687849
 21
1295.11881793892
  0
TEXT
  5
54F
100
AcDbEntity
  8
AM_6
100
AcDbText
  6
BYLAYER
 10
4674.85739456175
 20
3156.11881793907
 40
63.99999999984
 41
0.83
  1
アルミ押出し形材
  7
Font_0
 11
4674.85739456175
 21
3220.11881793891
100
AcDbText
 73
3
  0
LINE
  5
550
100
AcDbEntity
  8
AM_7
100
AcDbLine
  6
BYLAYER
 10
6010.6283917613
 20
2548.45215127225
 11
5952.37338687849
 21
2548.45215127225
  0
LINE
  5
551
100
AcDbEntity
  8
AM_0
100
AcDbLine
  6
BYLAYER
 10
5968.37338687849
 20
2498.45215126938
 11
5968.37338687849
 21
1958.45215127224
  0
LINE
  5
552
100
AcDbEntity
  8
AM_0
100
AcDbLine
  6
BYLAYER
 10
5925.70672021182
 20
2498.45215126938
 11
5968.37338687849
 21
2498.45215126938
  0
INSERT
  5
553
100
AcDbEntity
  8
AM_0
100
AcDbBlockReference
  6
BYLAYER
  2
押縁B_PV
 10
5992.37338687847
 20
2431.78548460559
 30
0.0
 41
-6.66666666666666
 42
6.66666666666666
 50
270
  0
INSERT
  5
554
100
AcDbEntity
  8
AM_0
100
AcDbBlockReference
  6
BYLAYER
  2
XR1156_SV_AM0
 10
5982.37338687849
 20
1318.4521512751
 30
0.0
 41
-6.66666666666666
 42
6.66666666666666
  0
INSERT
  5
555
100
AcDbEntity
  8
AM_0
100
AcDbBlockReference
  6
BYLAYER
  2
押縁B_PV
 10
5992.37338687848
 20
1411.78548460558
 30
0.0
 41
6.66666666666666
 42
6.66666666666666
 50
270
  0
LINE
  5
556
100
AcDbEntity
  8
AM_0
100
AcDbLine
  6
BYLAYER
 10
5925.70672021182
 20
1345.11881794178
 11
5968.37338687849
 21
1345.11881794179
  0
LINE
  5
557
100
AcDbEntity
  8
AM_0
100
AcDbLine
  6
BYLAYER
 10
6909.04005354515
 20
4765.71767772156
 11
6909.04005354515
 21
4242.05101105489
  0
LINE
  5
558
100
AcDbEntity
  8
AM_0
100
AcDbLine
  6
BYLAYER
 10
6450.70672021181
 20
4699.0510110549
 11
6889.04005354515
 21
4699.0510110549
  0
LINE
  5
559
100
AcDbEntity
  8
AM_0
100
AcDbLine
  6
BYLAYER
 10
5229.04005354515
 20
4699.0510110549
 11
5667.37338687848
 21
4699.0510110549
  0
LINE
  5
55A
100
AcDbEntity
  8
AM_0
100
AcDbLine
  6
BYLAYER
 10
5727.1161203497
 20
4699.0510110549
 11
6390.70672021181
 21
4699.0510110549
  0
LINE
  5
55B
100
AcDbEntity
  8
AM_7
100
AcDbLine
  6
BYLAYER
 10
6857.35644326479
 20
4399.0510110549
 11
6959.04005354515
 21
4399.0510110549
  0
INSERT
  5
55C
100
AcDbEntity
  8
AM_0
100
AcDbBlockReference
  6
BYLAYER
  2
戸当り_PV
 10
7029.04005354515
 20
4247.38434438823
 30
0.0
 41
-6.66666666666666
 42
6.66666666666666
  0
LINE
  5
55D
100
AcDbEntity
  8
AM_0
100
AcDbLine
  6
BYLAYER
 10
6889.04005354515
 20
4699.0510110549
 11
6889.04005354515
 21
4741.71767772157
  0
LINE
  5
55E
100
AcDbEntity
  8
AM_7
100
AcDbLine
  6
BYLAYER
 10
6857.35644326479
 20
4605.71767772157
 11
6959.04005354515
 21
4605.71767772157
  0
LINE
  5
55F
100
AcDbEntity
  8
AM_0
100
AcDbLine
  6
BYLAYER
 10
6909.04005354515
 20
4664.38434438823
 11
6450.70672021181
 21
4664.38434438823
  0
LINE
  5
560
100
AcDbEntity
  8
AM_7
100
AcDbLine
  6
BYLAYER
 10
5161.70672021181
 20
4462.38434438823
 11
5227.70672021181
 21
4462.38434438823
  0
LINE
  5
561
100
AcDbEntity
  8
AM_0
100
AcDbLine
  6
BYLAYER
 10
5167.37338687848
 20
4265.71767772157
 11
5667.37338687848
 21
4265.71767772157
  0
LINE
  5
562
100
AcDbEntity
  8
AM_0
100
AcDbLine
  6
BYLAYER
 10
5229.04005354515
 20
4741.71767772157
 11
5667.37338687848
 21
4741.71767772157
  0
LINE
  5
563
100
AcDbEntity
  8
AM_0
100
AcDbLine
  6
BYLAYER
 10
6450.70672021181
 20
4741.71767772157
 11
6889.04005354515
 21
4741.71767772157
  0
LINE
  5
564
100
AcDbEntity
  8
AM_0
100
AcDbLine
  6
BYLAYER
 10
5167.37338687848
 20
4299.0510110549
 11
5667.37338687848
 21
4299.0510110549
  0
LINE
  5
565
100
AcDbEntity
  8
AM_0
100
AcDbLine
  6
BYLAYER
 10
5727.1161203497
 20
4299.0510110549
 11
6227.37338687848
 21
4299.0510110549
  0
LINE
  5
566
100
AcDbEntity
  8
AM_0
100
AcDbLine
  6
BYLAYER
 10
6390.70672021181
 20
4229.0510110549
 11
5890.70672021181
 21
4229.0510110549
  0
LINE
  5
567
100
AcDbEntity
  8
AM_0
100
AcDbLine
  6
BYLAYER
 10
5727.1161203497
 20
4265.71767772157
 11
6227.37338687848
 21
4265.71767772157
  0
LINE
  5
568
100
AcDbEntity
  8
AM_0
100
AcDbLine
  6
BYLAYER
 10
6950.70672021181
 20
4229.0510110549
 11
6450.70672021181
 21
4229.0510110549
  0
LINE
  5
569
100
AcDbEntity
  8
AM_0
100
AcDbLine
  6
BYLAYER
 10
6950.70672021181
 20
4195.71767772157
 11
6450.70672021181
 21
4195.71767772157
  0
LINE
  5
56A
100
AcDbEntity
  8
AM_0
100
AcDbLine
  6
BYLAYER
 10
6390.70672021181
 20
4195.71767772157
 11
5890.70672021181
 21
4195.71767772157
  0
LINE
  5
56B
100
AcDbEntity
  8
AM_0
100
AcDbLine
  6
BYLAYER
 10
5309.04005354515
 20
4172.38434438823
 11
5667.37338687848
 21
4172.38434438823
  0
INSERT
  5
56C
100
AcDbEntity
  8
CONT_S_4
100
AcDbBlockReference
  6
BYLAYER
  2
引き手_TP1227_PV
 10
6689.04006021182
 20
4177.38434438822
 30
0.0
 41
-6.66666666666666
 42
6.66666666666666
 50
180
  0
INSERT
  5
56D
100
AcDbEntity
  8
CONT_S_4
100
AcDbBlockReference
  6
BYLAYER
  2
先付けビ_ドA_TP1330_
 10
6860.37338687848
 20
4675.05101105489
 30
0.0
 41
6.66666666666666
 42
6.66666666666666
  0
INSERT
  5
56E
100
AcDbEntity
  8
CONT_S_4
100
AcDbBlockReference
  6
BYLAYER
  2
先付けビ_ドA_TP1330_
 10
5257.70672021182
 20
4675.0510110549
 30
0.0
 41
-6.66666666666666
 42
6.66666666666666
  0
INSERT
  5
56F
100
AcDbEntity
  8
AM_0
100
AcDbBlockReference
  6
BYLAYER
  2
3型_たて枠案
 10
7045.70672021181
 20
4462.38434438823
 30
0.0
 41
6.66666666666666
 42
6.66666666666666
  0
INSERT
  5
570
100
AcDbEntity
  8
AM_0
100
AcDbBlockReference
  6
BYLAYER
  2
3型_たて枠案
 10
5072.37338687849
 20
4462.38434438824
 30
0.0
 41
-6.66666666666666
 42
6.66666666666666
  0
LINE
  5
571
100
AcDbEntity
  8
AM_0
100
AcDbLine
  6
BYLAYER
 10
6809.04005354515
 20
4172.38434438823
 11
6809.04005354515
 21
4165.71767772156
  0
LINE
  5
572
100
AcDbEntity
  8
AM_0
100
AcDbLine
  6
BYLAYER
 10
6809.04005354515
 20
4295.71767772156
 11
6450.70672021181
 21
4295.71767772156
  0
LINE
  5
573
100
AcDbEntity
  8
AM_0
100
AcDbLine
  6
BYLAYER
 10
6390.70672021181
 20
4295.71767772156
 11
6245.70672021182
 21
4295.71767772156
  0
LINE
  5
574
100
AcDbEntity
  8
AM_0
100
AcDbLine
  6
BYLAYER
 10
6809.04005354515
 20
4269.0510110549
 11
6450.70672021181
 21
4269.0510110549
  0
LINE
  5
575
100
AcDbEntity
  8
AM_0
100
AcDbLine
  6
BYLAYER
 10
6390.70672021181
 20
4269.0510110549
 11
6245.70672021182
 21
4269.0510110549
  0
LINE
  5
576
100
AcDbEntity
  8
AM_0
100
AcDbLine
  6
BYLAYER
 10
6909.04005354515
 20
4165.71767772156
 11
6450.70672021181
 21
4165.71767772157
  0
LINE
  5
577
100
AcDbEntity
  8
AM_0
100
AcDbLine
  6
BYLAYER
 10
6809.04005354515
 20
4172.38434438823
 11
6450.70672021181
 21
4172.38434438823
  0
LINE
  5
578
100
AcDbEntity
  8
AM_0
100
AcDbLine
  6
BYLAYER
 10
6909.04005354515
 20
4329.0510110549
 11
6450.70672021181
 21
4329.0510110549
  0
LINE
  5
579
100
AcDbEntity
  8
AM_0
100
AcDbLine
  6
BYLAYER
 10
6909.04005354515
 20
4692.38434438823
 11
6450.70672021181
 21
4692.38434438823
  0
LINE
  5
57A
100
AcDbEntity
  8
AM_0
100
AcDbLine
  6
BYLAYER
 10
6390.70672021181
 20
4664.38434438823
 11
5727.1161203497
 21
4664.38434438823
  0
LINE
  5
57B
100
AcDbEntity
  8
AM_0
100
AcDbLine
  6
BYLAYER
 10
5872.37338687848
 20
4225.71767772156
 11
5727.1161203497
 21
4225.71767772156
  0
LINE
  5
57C
100
AcDbEntity
  8
AM_0
100
AcDbLine
  6
BYLAYER
 10
5872.37338687848
 20
4199.0510110549
 11
5727.1161203497
 21
4199.0510110549
  0
LINE
  5
57D
100
AcDbEntity
  8
AM_0
100
AcDbLine
  6
BYLAYER
 10
5667.37338687848
 20
4199.0510110549
 11
5309.04005354515
 21
4199.0510110549
  0
LINE
  5
57E
100
AcDbEntity
  8
AM_0
100
AcDbLine
  6
BYLAYER
 10
5667.37338687848
 20
4225.71767772156
 11
5309.04005354515
 21
4225.71767772156
  0
LINE
  5
57F
100
AcDbEntity
  8
AM_0
100
AcDbLine
  6
BYLAYER
 10
6809.04005354515
 20
4295.71767772156
 11
6809.04005354515
 21
4269.0510110549
  0
LINE
  5
580
100
AcDbEntity
  8
AM_0
100
AcDbLine
  6
BYLAYER
 10
5998.50202014287
 20
4165.71767772157
 11
5727.1161203497
 21
4165.71767772157
  0
LINE
  5
581
100
AcDbEntity
  8
AM_0
100
AcDbLine
  6
BYLAYER
 10
5998.50202014287
 20
4172.38434438823
 11
5727.1161203497
 21
4172.38434438823
  0
LINE
  5
582
100
AcDbEntity
  8
AM_0
100
AcDbLine
  6
BYLAYER
 10
6450.70672021181
 20
4182.71767772156
 11
6955.70672021181
 21
4182.71767772156
  0
LINE
  5
583
100
AcDbEntity
  8
AM_0
100
AcDbLine
  6
BYLAYER
 10
6909.04005354515
 20
4182.71767772156
 11
6909.04005354515
 21
4165.71767772156
  0
LINE
  5
584
100
AcDbEntity
  8
AM_0
100
AcDbLine
  6
DASHED2
 10
6909.04005354515
 20
4242.05101105489
 11
6909.04005354515
 21
4182.71767772156
  0
LINE
  5
585
100
AcDbEntity
  8
AM_0
100
AcDbLine
  6
BYLAYER
 10
5885.70672021181
 20
4182.71767772156
 11
6390.70672021181
 21
4182.71767772156
  0
LINE
  5
586
100
AcDbEntity
  8
CONT_S_4
100
AcDbLine
  6
BYLAYER
 10
6450.70672021181
 20
4232.71767772156
 11
6955.70672021181
 21
4232.71767772156
  0
LINE
  5
587
100
AcDbEntity
  8
AM_0
100
AcDbLine
  6
BYLAYER
 10
5885.70672021181
 20
4242.05101105489
 11
6390.70672021181
 21
4242.05101105489
  0
LINE
  5
588
100
AcDbEntity
  8
CONT_S_4
100
AcDbLine
  6
BYLAYER
 10
5885.70672021181
 20
4232.71767772156
 11
6390.70672021181
 21
4232.71767772156
  0
LINE
  5
589
100
AcDbEntity
  8
CONT_S_4
100
AcDbLine
  6
BYLAYER
 10
5885.70672021181
 20
4192.05101105489
 11
6390.70672021181
 21
4192.05101105489
  0
LINE
  5
58A
100
AcDbEntity
  8
CONT_S_4
100
AcDbLine
  6
BYLAYER
 10
6450.70672021181
 20
4192.05101105489
 11
6955.70672021181
 21
4192.05101105488
  0
LINE
  5
58B
100
AcDbEntity
  8
AM_7
100
AcDbLine
  6
BYLAYER
 10
5072.37338687848
 20
4247.38434438824
 11
5378.99651354515
 21
4247.38434438824
  0
LINE
  5
58C
100
AcDbEntity
  8
AM_0
100
AcDbLine
  6
BYLAYER
 10
5167.37338687848
 20
4299.0510110549
 11
5167.37338687848
 21
4265.71767772157
  0
LINE
  5
58D
100
AcDbEntity
  8
AM_0
100
AcDbLine
  6
BYLAYER
 10
6450.70672021181
 20
4242.05101105489
 11
6955.70672021181
 21
4242.05101105489
  0
LINE
  5
58E
100
AcDbEntity
  8
AM_0
100
AcDbLine
  6
BYLAYER
 10
5162.37338687849
 20
4312.0510110549
 11
5667.37338687848
 21
4312.0510110549
  0
LINE
  5
58F
100
AcDbEntity
  8
CONT_S_4
100
AcDbLine
  6
BYLAYER
 10
5727.1161203497
 20
4302.71767772156
 11
6232.37338687848
 21
4302.71767772156
  0
LINE
  5
590
100
AcDbEntity
  8
AM_0
100
AcDbLine
  6
BYLAYER
 10
5162.37338687849
 20
4252.71767772157
 11
5667.37338687848
 21
4252.71767772157
  0
LINE
  5
591
100
AcDbEntity
  8
AM_0
100
AcDbLine
  6
BYLAYER
 10
5727.1161203497
 20
4252.71767772157
 11
6232.37338687848
 21
4252.71767772157
  0
LINE
  5
592
100
AcDbEntity
  8
AM_0
100
AcDbLine
  6
BYLAYER
 10
5727.1161203497
 20
4312.0510110549
 11
6232.37338687848
 21
4312.0510110549
  0
LINE
  5
593
100
AcDbEntity
  8
CONT_S_4
100
AcDbLine
  6
BYLAYER
 10
5727.1161203497
 20
4262.0510110549
 11
6232.37338687848
 21
4262.0510110549
  0
LINE
  5
594
100
AcDbEntity
  8
CONT_S_4
100
AcDbLine
  6
BYLAYER
 10
5162.37338687849
 20
4302.71767772156
 11
5667.37338687848
 21
4302.71767772156
  0
LINE
  5
595
100
AcDbEntity
  8
CONT_S_4
100
AcDbLine
  6
BYLAYER
 10
5162.37338687849
 20
4262.0510110549
 11
5667.37338687848
 21
4262.0510110549
  0
INSERT
  5
596
100
AcDbEntity
  8
AM_0
100
AcDbBlockReference
  6
BYLAYER
  2
XR1952_PV
 10
6955.70672021181
 20
4212.38434438823
 30
0.0
 41
6.66666666666666
 42
6.66666666666666
  0
INSERT
  5
597
100
AcDbEntity
  8
AM_0
100
AcDbBlockReference
  6
BYLAYER
  2
XR1952_PV
 10
5885.70672021181
 20
4212.38434438823
 30
0.0
 41
6.66666666666666
 42
6.66666666666666
 50
180
  0
INSERT
  5
598
100
AcDbEntity
  8
AM_0
100
AcDbBlockReference
  6
BYLAYER
  2
プッシュロック
 10
6059.16868680953
 20
4209.38447762377
 30
0.0
 41
6.66666666666666
 42
6.66666666666666
 50
90
  0
INSERT
  5
599
100
AcDbEntity
  8
AM_0
100
AcDbBlockReference
  6
BYLAYER
  2
XR1952_PV
 10
6232.37338687848
 20
4282.38434438823
 30
0.0
 41
6.66666666666666
 42
6.66666666666666
  0
LINE
  5
59A
100
AcDbEntity
  8
AM_0
100
AcDbLine
  6
BYLAYER
 10
5119.04005354515
 20
4755.71767772157
 11
5667.37338687848
 21
4755.71767772157
  0
LINE
  5
59B
100
AcDbEntity
  8
AM_0
100
AcDbLine
  6
BYLAYER
 10
5890.70672021181
 20
4229.0510110549
 11
5890.70672021181
 21
4195.71767772157
  0
LINE
  5
59C
100
AcDbEntity
  8
AM_0
100
AcDbLine
  6
BYLAYER
 10
6227.37338687848
 20
4299.0510110549
 11
6227.37338687848
 21
4265.71767772157
  0
LINE
  5
59D
100
AcDbEntity
  8
AM_0
100
AcDbLine
  6
BYLAYER
 10
6950.70672021181
 20
4229.0510110549
 11
6950.70672021181
 21
4195.71767772157
  0
LINE
  5
59E
100
AcDbEntity
  8
AM_0
100
AcDbLine
  6
BYLAYER
 10
5727.1161203497
 20
4755.71767772157
 11
6390.70672021181
 21
4755.71767772157
  0
LINE
  5
59F
100
AcDbEntity
  8
AM_0
100
AcDbLine
  6
DASHED2
 10
5209.04005354515
 20
4719.0510110549
 11
5209.04005354516
 21
4755.71767772157
  0
LINE
  5
5A0
100
AcDbEntity
  8
AM_0
100
AcDbLine
  6
BYLAYER
 10
6390.70672021181
 20
4741.71767772157
 11
5727.1161203497
 21
4741.71767772157
  0
LINE
  5
5A1
100
AcDbEntity
  8
AM_0
100
AcDbLine
  6
BYLAYER
 10
5119.04005354515
 20
4755.71767772157
 11
5119.04005354515
 21
4765.71767772156
  0
LINE
  5
5A2
100
AcDbEntity
  8
AM_0
100
AcDbLine
  6
BYLAYER
 10
6390.70672021181
 20
4765.71767772156
 11
5727.1161203497
 21
4765.71767772156
  0
LINE
  5
5A3
100
AcDbEntity
  8
AM_0
100
AcDbLine
  6
BYLAYER
 10
5667.37338687848
 20
4765.71767772156
 11
5119.04005354515
 21
4765.71767772156
  0
LINE
  5
5A4
100
AcDbEntity
  8
AM_0
100
AcDbLine
  6
BYLAYER
 10
5727.1161203497
 20
4329.0510110549
 11
6390.70672021181
 21
4329.0510110549
  0
LINE
  5
5A5
100
AcDbEntity
  8
AM_0
100
AcDbLine
  6
BYLAYER
 10
5309.04005354515
 20
4172.38434438823
 11
5309.04005354515
 21
4165.71767772157
  0
LINE
  5
5A6
100
AcDbEntity
  8
AM_0
100
AcDbLine
  6
BYLAYER
 10
5209.04005354515
 20
4165.71767772157
 11
5667.37338687848
 21
4165.71767772157
  0
LINE
  5
5A7
100
AcDbEntity
  8
AM_0
100
AcDbLine
  6
BYLAYER
 10
5209.04005354515
 20
4664.38434438823
 11
5667.37338687848
 21
4664.38434438823
  0
LINE
  5
5A8
100
AcDbEntity
  8
AM_0
100
AcDbLine
  6
BYLAYER
 10
5209.04005354515
 20
4329.0510110549
 11
5667.37338687848
 21
4329.0510110549
  0
LINE
  5
5A9
100
AcDbEntity
  8
AM_0
100
AcDbLine
  6
BYLAYER
 10
5209.04005354515
 20
4692.38434438823
 11
5667.37338687848
 21
4692.38434438823
  0
LINE
  5
5AA
100
AcDbEntity
  8
AM_0
100
AcDbLine
  6
BYLAYER
 10
5727.1161203497
 20
4692.38434438823
 11
6390.70672021181
 21
4692.38434438823
  0
LINE
  5
5AB
100
AcDbEntity
  8
AM_0
100
AcDbLine
  6
BYLAYER
 10
5209.04005354515
 20
4252.71767772157
 11
5209.04005354515
 21
4165.71767772157
  0
LINE
  5
5AC
100
AcDbEntity
  8
AM_0
100
AcDbLine
  6
BYLAYER
 10
5209.04005354515
 20
4765.71767772156
 11
5209.04005354515
 21
4312.0510110549
  0
LINE
  5
5AD
100
AcDbEntity
  8
AM_0
100
AcDbLine
  6
BYLAYER
 10
5309.04005354515
 20
4225.71767772156
 11
5309.04005354515
 21
4199.0510110549
  0
INSERT
  5
5AE
100
AcDbEntity
  8
AM_0
100
AcDbBlockReference
  6
BYLAYER
  2
XR1952_PV
 10
5162.37338687849
 20
4282.38434438823
 30
0.0
 41
-6.66666666666666
 42
6.66666666666666
  0
INSERT
  5
5AF
100
AcDbEntity
  8
AM_0
100
AcDbBlockReference
  6
BYLAYER
  2
戸当り_PV
 10
5089.04005354515
 20
4247.38434438824
 30
0.0
 41
6.66666666666666
 42
6.66666666666666
  0
LINE
  5
5B0
100
AcDbEntity
  8
AM_0
100
AcDbLine
  6
DASHED2
 10
5209.04005354515
 20
4312.0510110549
 11
5209.04005354515
 21
4252.71767772157
  0
LINE
  5
5B1
100
AcDbEntity
  8
AM_7
100
AcDbLine
  6
BYLAYER
 10
5121.04005354515
 20
4462.38434438824
 11
4895.70672021182
 21
4462.38434438824
  0
INSERT
  5
5B2
100
AcDbEntity
  8
CONT_S_4
100
AcDbBlockReference
  6
BYLAYER
  2
引き手_TP1227_PV
 10
5429.04004687848
 20
4247.38434438823
 30
0.0
 41
6.66666666666666
 42
6.66666666666666
 50
180
  0
INSERT
  5
5B3
100
AcDbEntity
  8
AM_0
100
AcDbBlockReference
  6
BYLAYER
  2
支柱案01
 10
5072.37338687849
 20
4462.38434438824
 30
0.0
 41
-6.66666666666666
 42
6.66666666666666
  0
LINE
  5
5B4
100
AcDbEntity
  8
AM_0
100
AcDbLine
  6
BYLAYER
 10
6119.8353534762
 20
4172.38434438823
 11
6390.70672021181
 21
4172.38434438823
  0
LINE
  5
5B5
100
AcDbEntity
  8
AM_0
100
AcDbLine
  6
BYLAYER
 10
5209.04005354515
 20
4165.71767772157
 11
5667.1161203497
 21
4165.71767772157
  0
LINE
  5
5B6
100
AcDbEntity
  8
AM_0
100
AcDbLine
  6
BYLAYER
 10
5308.78278701637
 20
4172.38434438823
 11
5667.1161203497
 21
4172.38434438823
  0
LINE
  5
5B7
100
AcDbEntity
  8
AM_0
100
AcDbLine
  6
BYLAYER
 10
6119.8353534762
 20
4165.71767772157
 11
6390.70672021181
 21
4165.71767772157
  0
LINE
  5
5B8
100
AcDbEntity
  8
AM_0
100
AcDbLine
  6
PHANTOM2
 10
5667.37338687848
 20
4825.71767772157
 11
5667.37338687848
 21
4105.71767772157
  0
LINE
  5
5B9
100
AcDbEntity
  8
AM_0
100
AcDbLine
  6
PHANTOM2
 10
5727.1161203497
 20
4825.71767772157
 11
5727.1161203497
 21
4105.71767772157
  0
LINE
  5
5BA
100
AcDbEntity
  8
AM_0
100
AcDbLine
  6
PHANTOM2
 10
6390.70672021181
 20
4825.71767772157
 11
6390.70672021181
 21
4105.71767772157
  0
LINE
  5
5BB
100
AcDbEntity
  8
AM_0
100
AcDbLine
  6
PHANTOM2
 10
6450.70672021181
 20
4825.71767772157
 11
6450.70672021181
 21
4105.71767772157
  0
LINE
  5
5BC
100
AcDbEntity
  8
AM_7
100
AcDbLine
  6
BYLAYER
 10
6679.04005354515
 20
4783.97268260438
 11
6679.04005354515
 21
4725.71767772157
  0
LINE
  5
5BD
100
AcDbEntity
  8
AM_7
100
AcDbLine
  6
BYLAYER
 10
6949.04005354515
 20
4783.97268260438
 11
6949.04005354515
 21
4725.71767772157
  0
LINE
  5
5BE
100
AcDbEntity
  8
AM_7
100
AcDbLine
  6
BYLAYER
 10
5439.04005354515
 20
4783.97268260438
 11
5439.04005354515
 21
4725.71767772157
  0
LINE
  5
5BF
100
AcDbEntity
  8
AM_7
100
AcDbLine
  6
BYLAYER
 10
6059.04005354515
 20
4783.97268260438
 11
6059.04005354515
 21
4725.71767772157
  0
LINE
  5
5C0
100
AcDbEntity
  8
AM_7
100
AcDbLine
  6
BYLAYER
 10
5169.04005354515
 20
4783.97268260439
 11
5169.04005354515
 21
4725.71767772157
  0
LINE
  5
5C1
100
AcDbEntity
  8
AM_7
100
AcDbLine
  6
BYLAYER
 10
6956.37338687848
 20
4462.38434438823
 11
6890.37338687848
 21
4462.38434438823
  0
LINE
  5
5C2
100
AcDbEntity
  8
AM_7
100
AcDbLine
  6
BYLAYER
 10
6996.78278701637
 20
4462.38434438824
 11
7222.1161203497
 21
4462.38434438824
  0
LINE
  5
5C3
100
AcDbEntity
  8
AM_7
100
AcDbLine
  6
BYLAYER
 10
7045.70672021181
 20
4247.38434438824
 11
6739.08359354515
 21
4247.38434438824
  0
LINE
  5
5C4
100
AcDbEntity
  8
AM_7
100
AcDbLine
  6
BYLAYER
 10
5260.7236638255
 20
4399.0510110549
 11
5159.04005354515
 21
4399.0510110549
  0
LINE
  5
5C5
100
AcDbEntity
  8
AM_7
100
AcDbLine
  6
BYLAYER
 10
5260.7236638255
 20
4605.71767772157
 11
5159.04005354515
 21
4605.71767772157
  0
INSERT
  5
5C6
100
AcDbEntity
  8
AM_0
100
AcDbBlockReference
  6
BYLAYER
  2
支柱案01
 10
7045.70672021181
 20
4462.38434438824
 30
0.0
 41
6.66666666666666
 42
6.66666666666666
  0
INSERT
  5
5C7
100
AcDbEntity
  8
AM_0
100
AcDbBlockReference
  6
BYLAYER
  2
押縁B_PV
 10
5285.70672021182
 20
4765.71767772157
 30
0.0
 41
-6.66666666666666
 42
6.66666666666666
  0
LINE
  5
5C8
100
AcDbEntity
  8
AM_0
100
AcDbLine
  6
BYLAYER
 10
5229.04005354515
 20
4699.0510110549
 11
5229.04005354515
 21
4741.71767772157
  0
INSERT
  5
5C9
100
AcDbEntity
  8
AM_0
100
AcDbBlockReference
  6
BYLAYER
  2
押縁B_PV
 10
6832.37338687848
 20
4765.71767772157
 30
0.0
 41
6.66666666666666
 42
6.66666666666666
  0
LINE
  5
5CA
100
AcDbEntity
  8
AM_0
100
AcDbLine
  6
BYLAYER
 10
6999.04005354515
 20
4755.71767772157
 11
6999.04005354515
 21
4765.71767772157
  0
LINE
  5
5CB
100
AcDbEntity
  8
AM_0
100
AcDbLine
  6
BYLAYER
 10
6999.04005354515
 20
4755.71767772157
 11
6450.70672021181
 21
4755.71767772157
  0
LINE
  5
5CC
100
AcDbEntity
  8
AM_0
100
AcDbLine
  6
BYLAYER
 10
6450.70672021181
 20
4765.71767772157
 11
6999.04005354515
 21
4765.71767772157
  0
LINE
  5
5CD
100
AcDbEntity
  8
AM_0
100
AcDbLine
  6
BYLAYER
 10
3788.54094691947
 20
4691.92752201056
 11
3788.54094691947
 21
2721.92752201056
  0
LINE
  5
5CE
100
AcDbEntity
  8
AM_0
100
AcDbLine
  6
BYLAYER
 10
3886.54094691947
 20
4691.92752201056
 11
3886.54094691947
 21
2721.92752201056
  0
INSERT
  5
5CF
100
AcDbEntity
  8
AM_0
100
AcDbBlockReference
  6
BYLAYER
  2
柱キャップ_横
 10
3837.54094691947
 20
4696.92752201056
 30
0.0
  0
LINE
  5
5D0
100
AcDbEntity
  8
AM_0
100
AcDbLine
  6
BYLAYER
 10
3788.54094691947
 20
2721.92752201056
 11
3788.54094691947
 21
2121.92752201056
  0
LINE
  5
5D1
100
AcDbEntity
  8
AM_0
100
AcDbLine
  6
BYLAYER
 10
3886.54094691947
 20
2721.92752201056
 11
3886.54094691947
 21
2121.92752201056
  0
TEXT
  5
5D2
100
AcDbEntity
  8
AM_6
100
AcDbText
  6
BYLAYER
 10
7386.05759985225
 20
224.427522010565
 40
80
 41
0.83
  1
2018.07.12
  7
Font_0
 11
7386.05759985225
 21
264.427522010565
100
AcDbText
 73
2
  0
TEXT
  5
5D3
100
AcDbEntity
  8
AM_6
100
AcDbText
  6
BYLAYER
 10
6770.69443415862
 20
3478.54092204038
 40
63.99999999984
 41
0.83
  1
A-A'断面図（S=1：3）
  7
Font_0
 11
6770.69443415862
 21
3510.5409220403
100
AcDbText
 73
2
  0
LINE
  5
5D4
100
AcDbEntity
  8
AM_6
100
AcDbLine
  6
BYLAYER
 10
6749.04005354514
 20
3461.6618154584
 11
7534.61759725952
 21
3461.6618154584
  0
LINE
  5
5D5
100
AcDbEntity
  8
AM_6
100
AcDbLine
  6
BYLAYER
 10
6749.04005354514
 20
3451.6618154584
 11
7534.61759725952
 21
3451.6618154584
  0
LINE
  5
5D6
100
AcDbEntity
  8
AM_6
100
AcDbLine
  6
BYLAYER
 10
6749.04005354514
 20
671.440941240681
 11
7534.61759725952
 21
671.440941240681
  0
LINE
  5
5D7
100
AcDbEntity
  8
AM_6
100
AcDbLine
  6
BYLAYER
 10
6749.04005354514
 20
681.44094124068
 11
7534.61759725952
 21
681.44094124068
  0
TEXT
  5
5D8
100
AcDbEntity
  8
AM_6
100
AcDbText
  6
BYLAYER
 10
6757.21649878437
 20
698.320047822664
 40
63.99999999984
 41
0.83
  1
B-B'断面図（S=1：3）
  7
Font_0
 11
6757.21649878437
 21
730.320047822584
100
AcDbText
 73
2
  0
LINE
  5
5D9
100
AcDbEntity
  8
AM_5
100
AcDbLine
  6
BYLAYER
 10
1034.54094691941
 20
4716.92752201056
 11
1034.54094691941
 21
4921.92752201056
  0
LINE
  5
5DA
100
AcDbEntity
  8
AM_5
100
AcDbLine
  6
BYLAYER
 10
2748.54094691941
 20
4716.92752201056
 11
2748.54094691941
 21
4921.92752201056
  0
LINE
  5
5DB
100
AcDbEntity
  8
AM_5
100
AcDbLine
  6
BYLAYER
 10
1074.54094691941
 20
4896.92752201056
 11
2708.54094691941
 21
4896.92752201056
  0
TEXT
  5
5DC
100
AcDbEntity
  8
AM_5
100
AcDbText
  6
BYLAYER
 10
1826.54094691941
 20
4912.55252201056
 40
65
  1
1714
  7
Font_0
 72
1
 11
1891.54094691941
 21
4945.05252201056
100
AcDbText
 73
2
  0
LINE
  5
5DD
100
AcDbEntity
  8
0
100
AcDbLine
  6
BYBLOCK
 62
0
370
  -2
 10
1074.54094691941
 20
4890.2608553439
 11
1034.54094691941
 21
4896.92752201056
  0
LINE
  5
5DE
100
AcDbEntity
  8
0
100
AcDbLine
  6
BYBLOCK
 62
0
370
  -2
 10
1074.54094691941
 20
4903.59418867723
 11
1034.54094691941
 21
4896.92752201056
  0
LINE
  5
5DF
100
AcDbEntity
  8
0
100
AcDbLine
  6
BYBLOCK
 62
0
370
  -2
 10
1034.54094691941
 20
4896.92752201056
 11
1074.54094691941
 21
4896.92752201056
  0
LINE
  5
5E0
100
AcDbEntity
  8
0
100
AcDbLine
  6
BYBLOCK
 62
0
370
  -2
 10
2708.54094691941
 20
4903.59418867723
 11
2748.54094691941
 21
4896.92752201056
  0
LINE
  5
5E1
100
AcDbEntity
  8
0
100
AcDbLine
  6
BYBLOCK
 62
0
370
  -2
 10
2708.54094691941
 20
4890.2608553439
 11
2748.54094691941
 21
4896.92752201056
  0
LINE
  5
5E2
100
AcDbEntity
  8
0
100
AcDbLine
  6
BYBLOCK
 62
0
370
  -2
 10
2748.54094691941
 20
4896.92752201056
 11
2708.54094691941
 21
4896.92752201056
  0
LINE
  5
5E3
100
AcDbEntity
  8
AM_5
100
AcDbLine
  6
BYLAYER
 10
944.540940257706
 20
4716.92752201056
 11
944.540940257706
 21
5061.92752201056
  0
LINE
  5
5E4
100
AcDbEntity
  8
AM_5
100
AcDbLine
  6
BYLAYER
 10
2838.54094691941
 20
4716.92752201056
 11
2838.54094691941
 21
5061.92752201056
  0
LINE
  5
5E5
100
AcDbEntity
  8
AM_5
100
AcDbLine
  6
BYLAYER
 10
984.540940257705
 20
5036.92752201056
 11
2798.54094691941
 21
5036.92752201056
  0
TEXT
  5
5E6
100
AcDbEntity
  8
AM_5
100
AcDbText
  6
BYLAYER
 10
1794.04094358856
 20
5052.55252201056
 40
65
  1
W=1894
  7
Font_0
 72
1
 11
1891.54094358856
 21
5085.05252201056
100
AcDbText
 73
2
  0
LINE
  5
5E7
100
AcDbEntity
  8
0
100
AcDbLine
  6
BYBLOCK
 62
0
370
  -2
 10
984.540940257706
 20
5030.2608553439
 11
944.540940257706
 21
5036.92752201056
  0
LINE
  5
5E8
100
AcDbEntity
  8
0
100
AcDbLine
  6
BYBLOCK
 62
0
370
  -2
 10
984.540940257706
 20
5043.59418867723
 11
944.540940257706
 21
5036.92752201056
  0
LINE
  5
5E9
100
AcDbEntity
  8
0
100
AcDbLine
  6
BYBLOCK
 62
0
370
  -2
 10
944.540940257706
 20
5036.92752201056
 11
984.540940257706
 21
5036.92752201056
  0
LINE
  5
5EA
100
AcDbEntity
  8
0
100
AcDbLine
  6
BYBLOCK
 62
0
370
  -2
 10
2798.54094691941
 20
5043.59418867723
 11
2838.54094691941
 21
5036.92752201056
  0
LINE
  5
5EB
100
AcDbEntity
  8
0
100
AcDbLine
  6
BYBLOCK
 62
0
370
  -2
 10
2798.54094691941
 20
5030.2608553439
 11
2838.54094691941
 21
5036.92752201056
  0
LINE
  5
5EC
100
AcDbEntity
  8
0
100
AcDbLine
  6
BYBLOCK
 62
0
370
  -2
 10
2838.54094691941
 20
5036.92752201056
 11
2798.54094691941
 21
5036.92752201056
  0
LINE
  5
5ED
100
AcDbEntity
  8
AM_5
100
AcDbLine
  6
BYLAYER
 10
2773.54094691941
 20
3493.42751249546
 11
3113.54094691945
 21
3493.42751249546
  0
LINE
  5
5EE
100
AcDbEntity
  8
AM_5
100
AcDbLine
  6
BYLAYER
 10
2796.54094691941
 20
3436.92751725301
 11
3113.54094691945
 21
3436.92751725301
  0
LINE
  5
5EF
100
AcDbEntity
  8
AM_5
100
AcDbLine
  6
BYLAYER
 10
3088.54094691945
 20
3533.42751249546
 11
3088.54094691945
 21
3573.42751249546
  0
LINE
  5
5F0
100
AcDbEntity
  8
AM_5
100
AcDbLine
  6
BYLAYER
 10
3088.54094691945
 20
3396.92751725301
 11
3088.54094691945
 21
3161.25846963397
  0
LINE
  5
5F1
100
AcDbEntity
  8
AM_5
100
AcDbLine
  6
BYLAYER
 10
3088.54094691945
 20
3493.42751249546
 11
3088.54094691945
 21
3436.92751725301
  0
TEXT
  5
5F2
100
AcDbEntity
  8
AM_5
100
AcDbText
  6
BYLAYER
 10
3072.91594691945
 20
3194.09299344349
 40
65
  1
56.5
  7
Font_0
 50
90
 72
1
 11
3040.41594691945
 21
3259.09299344349
100
AcDbText
 73
2
  0
LINE
  5
5F3
100
AcDbEntity
  8
0
100
AcDbLine
  6
BYBLOCK
 62
0
370
  -2
 10
3095.20761358612
 20
3533.42751249546
 11
3088.54094691945
 21
3493.42751249546
  0
LINE
  5
5F4
100
AcDbEntity
  8
0
100
AcDbLine
  6
BYBLOCK
 62
0
370
  -2
 10
3081.87428025278
 20
3533.42751249546
 11
3088.54094691945
 21
3493.42751249546
  0
LINE
  5
5F5
100
AcDbEntity
  8
0
100
AcDbLine
  6
BYBLOCK
 62
0
370
  -2
 10
3088.54094691945
 20
3493.42751249546
 11
3088.54094691945
 21
3533.42751249546
  0
LINE
  5
5F6
100
AcDbEntity
  8
0
100
AcDbLine
  6
BYBLOCK
 62
0
370
  -2
 10
3081.87428025278
 20
3396.92751725301
 11
3088.54094691945
 21
3436.92751725301
  0
LINE
  5
5F7
100
AcDbEntity
  8
0
100
AcDbLine
  6
BYBLOCK
 62
0
370
  -2
 10
3095.20761358612
 20
3396.92751725301
 11
3088.54094691945
 21
3436.92751725301
  0
LINE
  5
5F8
100
AcDbEntity
  8
0
100
AcDbLine
  6
BYBLOCK
 62
0
370
  -2
 10
3088.54094691945
 20
3436.92751725301
 11
3088.54094691945
 21
3396.92751725301
  0
LINE
  5
5F9
100
AcDbEntity
  8
AM_5
100
AcDbLine
  6
BYLAYER
 10
794.540946919414
 20
4555.64459350951
 11
794.540946919414
 21
4505.68408821902
  0
LINE
  5
5FA
100
AcDbEntity
  8
AM_5
100
AcDbLine
  6
BYLAYER
 10
794.540946919414
 20
4505.68408821902
 11
794.540946919414
 21
4473.68408821902
  0
LINE
  5
5FB
100
AcDbEntity
  8
AM_5
100
AcDbLine
  6
BYLAYER
 10
790.328067015413
 20
4505.68408821902
 11
794.540946919414
 21
4473.68408821902
  0
LINE
  5
5FC
100
AcDbEntity
  8
AM_5
100
AcDbLine
  6
BYLAYER
 10
794.540946919414
 20
4473.68408821902
 11
798.753826823414
 21
4505.68408821902
  0
LINE
  5
5FD
100
AcDbEntity
  8
AM_5
100
AcDbLine
  6
BYLAYER
 10
894.540946919414
 20
4555.64459350951
 11
794.540946919414
 21
4555.64459350951
  0
LINE
  5
5FE
100
AcDbEntity
  8
AM_5
100
AcDbLine
  6
BYLAYER
 10
2432.76547723579
 20
4728.06157810175
 11
2432.76547723579
 21
4828.06157810175
  0
LINE
  5
5FF
100
AcDbEntity
  8
AM_5
100
AcDbLine
  6
BYLAYER
 10
2432.76547723579
 20
4828.06157810175
 11
2382.80497194531
 21
4828.06157810175
  0
LINE
  5
600
100
AcDbEntity
  8
AM_5
100
AcDbLine
  6
BYLAYER
 10
2382.80497194531
 20
4828.06157810175
 11
2350.80497194531
 21
4828.06157810175
  0
LINE
  5
601
100
AcDbEntity
  8
AM_5
100
AcDbLine
  6
BYLAYER
 10
2382.80497194531
 20
4832.27445800575
 11
2350.80497194531
 21
4828.06157810175
  0
LINE
  5
602
100
AcDbEntity
  8
AM_5
100
AcDbLine
  6
BYLAYER
 10
2350.80497194531
 20
4828.06157810175
 11
2382.80497194531
 21
4823.84869819775
  0
LINE
  5
603
100
AcDbEntity
  8
AM_5
100
AcDbLine
  6
BYLAYER
 10
2888.54094691941
 20
4555.64459350951
 11
2988.54094691941
 21
4555.64459350951
  0
LINE
  5
604
100
AcDbEntity
  8
AM_5
100
AcDbLine
  6
BYLAYER
 10
2988.54094691941
 20
4555.64459350951
 11
2988.54094691941
 21
4505.68408821903
  0
LINE
  5
605
100
AcDbEntity
  8
AM_5
100
AcDbLine
  6
BYLAYER
 10
2988.54094691941
 20
4505.68408821903
 11
2988.54094691941
 21
4473.68408821903
  0
LINE
  5
606
100
AcDbEntity
  8
AM_5
100
AcDbLine
  6
BYLAYER
 10
2984.32806701541
 20
4505.68408821903
 11
2988.54094691941
 21
4473.68408821903
  0
LINE
  5
607
100
AcDbEntity
  8
AM_5
100
AcDbLine
  6
BYLAYER
 10
2988.54094691941
 20
4473.68408821903
 11
2992.75382682341
 21
4505.68408821903
  0
LINE
  5
608
100
AcDbEntity
  8
AM_5
100
AcDbLine
  6
BYLAYER
 10
5365.70672021181
 20
3036.78548460558
 11
5365.70672021181
 21
3270.11881793891
  0
LINE
  5
609
100
AcDbEntity
  8
AM_5
100
AcDbLine
  6
BYLAYER
 10
6019.04005354515
 20
3036.78548460557
 11
6019.04005354515
 21
3270.11881793891
  0
LINE
  5
60A
100
AcDbEntity
  8
AM_5
100
AcDbLine
  6
BYLAYER
 10
5405.70672021181
 20
3245.11881793891
 11
5979.04005354515
 21
3245.11881793891
  0
TEXT
  5
60B
100
AcDbEntity
  8
AM_5
100
AcDbText
  6
BYLAYER
 10
5659.87338687848
 20
3260.74381793891
 40
65
  1
98
  7
Font_0
 72
1
 11
5692.37338687848
 21
3293.24381793891
100
AcDbText
 73
2
  0
LINE
  5
60C
100
AcDbEntity
  8
0
100
AcDbLine
  6
BYBLOCK
 62
0
370
  -2
 10
5405.70672021181
 20
3238.45215127225
 11
5365.70672021181
 21
3245.11881793891
  0
LINE
  5
60D
100
AcDbEntity
  8
0
100
AcDbLine
  6
BYBLOCK
 62
0
370
  -2
 10
5405.70672021181
 20
3251.78548460558
 11
5365.70672021181
 21
3245.11881793891
  0
LINE
  5
60E
100
AcDbEntity
  8
0
100
AcDbLine
  6
BYBLOCK
 62
0
370
  -2
 10
5365.70672021181
 20
3245.11881793891
 11
5405.70672021181
 21
3245.11881793891
  0
LINE
  5
60F
100
AcDbEntity
  8
0
100
AcDbLine
  6
BYBLOCK
 62
0
370
  -2
 10
5979.04005354515
 20
3251.78548460558
 11
6019.04005354515
 21
3245.11881793891
  0
LINE
  5
610
100
AcDbEntity
  8
0
100
AcDbLine
  6
BYBLOCK
 62
0
370
  -2
 10
5979.04005354515
 20
3238.45215127225
 11
6019.04005354515
 21
3245.11881793891
  0
LINE
  5
611
100
AcDbEntity
  8
0
100
AcDbLine
  6
BYBLOCK
 62
0
370
  -2
 10
6019.04005354515
 20
3245.11881793891
 11
5979.04005354515
 21
3245.11881793891
  0
LINE
  5
612
100
AcDbEntity
  8
AM_5
100
AcDbLine
  6
BYLAYER
 10
5354.04005354515
 20
911.78548460558
 11
4740.70672021181
 21
911.78548460558
  0
LINE
  5
613
100
AcDbEntity
  8
AM_5
100
AcDbLine
  6
BYLAYER
 10
5391.04005354514
 20
1288.45215127224
 11
4740.70672021181
 21
1288.45215127224
  0
LINE
  5
614
100
AcDbEntity
  8
AM_5
100
AcDbLine
  6
BYLAYER
 10
4765.70672021181
 20
951.78548460558
 11
4765.70672021181
 21
1248.45215127224
  0
TEXT
  5
615
100
AcDbEntity
  8
AM_5
100
AcDbText
  6
BYLAYER
 10
4750.08172021181
 20
1035.11881793891
 40
65
  1
56.5
  7
Font_0
 50
90
 72
1
 11
4717.58172021181
 21
1100.11881793891
100
AcDbText
 73
2
  0
LINE
  5
616
100
AcDbEntity
  8
0
100
AcDbLine
  6
BYBLOCK
 62
0
370
  -2
 10
4772.37338687848
 20
951.78548460558
 11
4765.70672021181
 21
911.78548460558
  0
LINE
  5
617
100
AcDbEntity
  8
0
100
AcDbLine
  6
BYBLOCK
 62
0
370
  -2
 10
4759.04005354515
 20
951.78548460558
 11
4765.70672021181
 21
911.78548460558
  0
LINE
  5
618
100
AcDbEntity
  8
0
100
AcDbLine
  6
BYBLOCK
 62
0
370
  -2
 10
4765.70672021181
 20
911.78548460558
 11
4765.70672021181
 21
951.78548460558
  0
LINE
  5
619
100
AcDbEntity
  8
0
100
AcDbLine
  6
BYBLOCK
 62
0
370
  -2
 10
4759.04005354515
 20
1248.45215127224
 11
4765.70672021181
 21
1288.45215127224
  0
LINE
  5
61A
100
AcDbEntity
  8
0
100
AcDbLine
  6
BYBLOCK
 62
0
370
  -2
 10
4772.37338687848
 20
1248.45215127224
 11
4765.70672021181
 21
1288.45215127224
  0
LINE
  5
61B
100
AcDbEntity
  8
0
100
AcDbLine
  6
BYBLOCK
 62
0
370
  -2
 10
4765.70672021181
 20
1288.45215127224
 11
4765.70672021181
 21
1248.45215127224
  0
LINE
  5
61C
100
AcDbEntity
  8
AM_5
100
AcDbLine
  6
BYLAYER
 10
5367.37338687847
 20
2378.45215127225
 11
4740.70672021181
 21
2378.45215127225
  0
LINE
  5
61D
100
AcDbEntity
  8
AM_5
100
AcDbLine
  6
BYLAYER
 10
5367.37338687847
 20
3045.11881793891
 11
4740.70672021181
 21
3045.11881793891
  0
LINE
  5
61E
100
AcDbEntity
  8
AM_5
100
AcDbLine
  6
BYLAYER
 10
4765.70672021181
 20
2418.45215127225
 11
4765.70672021181
 21
3005.11881793891
  0
TEXT
  5
61F
100
AcDbEntity
  8
AM_5
100
AcDbText
  6
BYLAYER
 10
4750.08172021181
 20
2663.03548460558
 40
65
  1
100
  7
Font_0
 50
90
 72
1
 11
4717.58172021181
 21
2711.78548460558
100
AcDbText
 73
2
  0
LINE
  5
620
100
AcDbEntity
  8
0
100
AcDbLine
  6
BYBLOCK
 62
0
370
  -2
 10
4772.37338687848
 20
2418.45215127225
 11
4765.70672021181
 21
2378.45215127225
  0
LINE
  5
621
100
AcDbEntity
  8
0
100
AcDbLine
  6
BYBLOCK
 62
0
370
  -2
 10
4759.04005354515
 20
2418.45215127225
 11
4765.70672021181
 21
2378.45215127225
  0
LINE
  5
622
100
AcDbEntity
  8
0
100
AcDbLine
  6
BYBLOCK
 62
0
370
  -2
 10
4765.70672021181
 20
2378.45215127225
 11
4765.70672021181
 21
2418.45215127225
  0
LINE
  5
623
100
AcDbEntity
  8
0
100
AcDbLine
  6
BYBLOCK
 62
0
370
  -2
 10
4759.04005354515
 20
3005.11881793891
 11
4765.70672021181
 21
3045.11881793891
  0
LINE
  5
624
100
AcDbEntity
  8
0
100
AcDbLine
  6
BYBLOCK
 62
0
370
  -2
 10
4772.37338687848
 20
3005.11881793891
 11
4765.70672021181
 21
3045.11881793891
  0
LINE
  5
625
100
AcDbEntity
  8
0
100
AcDbLine
  6
BYBLOCK
 62
0
370
  -2
 10
4765.70672021181
 20
3045.11881793891
 11
4765.70672021181
 21
3005.11881793891
  0
LINE
  5
626
100
AcDbEntity
  8
AM_5
100
AcDbLine
  6
BYLAYER
 10
6017.37338687847
 20
3045.11881793891
 11
6500.70672021182
 21
3045.11881793891
  0
LINE
  5
627
100
AcDbEntity
  8
AM_5
100
AcDbLine
  6
BYLAYER
 10
6024.04005354515
 20
911.78548460558
 11
6500.70672021181
 21
911.785484605579
  0
LINE
  5
628
100
AcDbEntity
  8
AM_5
100
AcDbLine
  6
BYLAYER
 10
6475.70672021182
 20
3005.11881793891
 11
6475.70672021181
 21
951.78548460558
  0
TEXT
  5
629
100
AcDbEntity
  8
AM_5
100
AcDbText
  6
BYLAYER
 10
6460.08172021182
 20
1880.95215127225
 40
65
  1
H=1260
  7
Font_0
 50
90
 72
1
 11
6427.58172021182
 21
1978.45215127225
100
AcDbText
 73
2
  0
LINE
  5
62A
100
AcDbEntity
  8
0
100
AcDbLine
  6
BYBLOCK
 62
0
370
  -2
 10
6469.04005354515
 20
3005.11881793891
 11
6475.70672021182
 21
3045.11881793891
  0
LINE
  5
62B
100
AcDbEntity
  8
0
100
AcDbLine
  6
BYBLOCK
 62
0
370
  -2
 10
6482.37338687848
 20
3005.11881793891
 11
6475.70672021182
 21
3045.11881793891
  0
LINE
  5
62C
100
AcDbEntity
  8
0
100
AcDbLine
  6
BYBLOCK
 62
0
370
  -2
 10
6475.70672021182
 20
3045.11881793891
 11
6475.70672021182
 21
3005.11881793891
  0
LINE
  5
62D
100
AcDbEntity
  8
0
100
AcDbLine
  6
BYBLOCK
 62
0
370
  -2
 10
6482.37338687848
 20
951.785484605579
 11
6475.70672021181
 21
911.785484605579
  0
LINE
  5
62E
100
AcDbEntity
  8
0
100
AcDbLine
  6
BYBLOCK
 62
0
370
  -2
 10
6469.04005354515
 20
951.785484605579
 11
6475.70672021181
 21
911.785484605579
  0
LINE
  5
62F
100
AcDbEntity
  8
0
100
AcDbLine
  6
BYBLOCK
 62
0
370
  -2
 10
6475.70672021181
 20
911.785484605579
 11
6475.70672021181
 21
951.785484605579
  0
LINE
  5
630
100
AcDbEntity
  8
AM_5
100
AcDbLine
  6
BYLAYER
 10
5391.04005354514
 20
1288.45215127224
 11
4740.70672021181
 21
1288.45215127224
  0
LINE
  5
631
100
AcDbEntity
  8
AM_5
100
AcDbLine
  6
BYLAYER
 10
5367.37338687847
 20
2378.45215127224
 11
4740.70672021181
 21
2378.45215127224
  0
LINE
  5
632
100
AcDbEntity
  8
AM_5
100
AcDbLine
  6
BYLAYER
 10
4765.70672021181
 20
1328.45215127224
 11
4765.70672021181
 21
2338.45215127224
  0
TEXT
  5
633
100
AcDbEntity
  8
AM_5
100
AcDbText
  6
BYLAYER
 10
4750.08172021181
 20
1735.95215127224
 40
65
  1
1103.5
  7
Font_0
 50
90
 72
1
 11
4717.58172021181
 21
1833.45215127224
100
AcDbText
 73
2
  0
LINE
  5
634
100
AcDbEntity
  8
0
100
AcDbLine
  6
BYBLOCK
 62
0
370
  -2
 10
4772.37338687848
 20
1328.45215127224
 11
4765.70672021181
 21
1288.45215127224
  0
LINE
  5
635
100
AcDbEntity
  8
0
100
AcDbLine
  6
BYBLOCK
 62
0
370
  -2
 10
4759.04005354515
 20
1328.45215127224
 11
4765.70672021181
 21
1288.45215127224
  0
LINE
  5
636
100
AcDbEntity
  8
0
100
AcDbLine
  6
BYBLOCK
 62
0
370
  -2
 10
4765.70672021181
 20
1288.45215127224
 11
4765.70672021181
 21
1328.45215127224
  0
LINE
  5
637
100
AcDbEntity
  8
0
100
AcDbLine
  6
BYBLOCK
 62
0
370
  -2
 10
4759.04005354515
 20
2338.45215127224
 11
4765.70672021181
 21
2378.45215127224
  0
LINE
  5
638
100
AcDbEntity
  8
0
100
AcDbLine
  6
BYBLOCK
 62
0
370
  -2
 10
4772.37338687848
 20
2338.45215127224
 11
4765.70672021181
 21
2378.45215127224
  0
LINE
  5
639
100
AcDbEntity
  8
0
100
AcDbLine
  6
BYBLOCK
 62
0
370
  -2
 10
4765.70672021181
 20
2378.45215127224
 11
4765.70672021181
 21
2338.45215127224
  0
LINE
  5
63A
100
AcDbEntity
  8
AM_5
100
AcDbLine
  6
BYLAYER
 10
6017.37338687849
 20
911.785484605579
 11
6360.70672021181
 21
911.785484605579
  0
LINE
  5
63B
100
AcDbEntity
  8
AM_5
100
AcDbLine
  6
BYLAYER
 10
6017.37338687849
 20
1411.78548460558
 11
6360.70672021181
 21
1411.78548460558
  0
LINE
  5
63C
100
AcDbEntity
  8
AM_5
100
AcDbLine
  6
BYLAYER
 10
6335.70672021181
 20
951.785484605579
 11
6335.70672021181
 21
1371.78548460558
  0
TEXT
  5
63D
100
AcDbEntity
  8
AM_5
100
AcDbText
  6
BYLAYER
 10
6320.08172021182
 20
1129.28548460558
 40
65
  1
75
  7
Font_0
 50
90
 72
1
 11
6287.58172021182
 21
1161.78548460558
100
AcDbText
 73
2
  0
LINE
  5
63E
100
AcDbEntity
  8
0
100
AcDbLine
  6
BYBLOCK
 62
0
370
  -2
 10
6342.37338687848
 20
951.785484605579
 11
6335.70672021181
 21
911.785484605579
  0
LINE
  5
63F
100
AcDbEntity
  8
0
100
AcDbLine
  6
BYBLOCK
 62
0
370
  -2
 10
6329.04005354515
 20
951.785484605579
 11
6335.70672021181
 21
911.785484605579
  0
LINE
  5
640
100
AcDbEntity
  8
0
100
AcDbLine
  6
BYBLOCK
 62
0
370
  -2
 10
6335.70672021181
 20
911.785484605579
 11
6335.70672021181
 21
951.785484605579
  0
LINE
  5
641
100
AcDbEntity
  8
0
100
AcDbLine
  6
BYBLOCK
 62
0
370
  -2
 10
6329.04005354515
 20
1371.78548460558
 11
6335.70672021181
 21
1411.78548460558
  0
LINE
  5
642
100
AcDbEntity
  8
0
100
AcDbLine
  6
BYBLOCK
 62
0
370
  -2
 10
6342.37338687848
 20
1371.78548460558
 11
6335.70672021181
 21
1411.78548460558
  0
LINE
  5
643
100
AcDbEntity
  8
0
100
AcDbLine
  6
BYBLOCK
 62
0
370
  -2
 10
6335.70672021181
 20
1411.78548460558
 11
6335.70672021181
 21
1371.78548460558
  0
LINE
  5
644
100
AcDbEntity
  8
AM_5
100
AcDbLine
  6
BYLAYER
 10
5367.37338687847
 20
3045.11881793891
 11
4600.70672021181
 21
3045.11881793891
  0
LINE
  5
645
100
AcDbEntity
  8
AM_5
100
AcDbLine
  6
BYLAYER
 10
4625.70672021181
 20
3005.11881793891
 11
4625.70672021181
 21
807.010751869637
  0
TEXT
  5
646
100
AcDbEntity
  8
AM_5
100
AcDbText
  6
BYLAYER
 10
4610.08172021181
 20
1776.06478490427
 40
65
  1
GLH=1975
  7
Font_0
 50
90
 72
1
 11
4577.58172021181
 21
1906.06478490427
100
AcDbText
 73
2
  0
LINE
  5
647
100
AcDbEntity
  8
0
100
AcDbLine
  6
BYBLOCK
 62
0
370
  -2
 10
4619.04005354515
 20
3005.11881793891
 11
4625.70672021181
 21
3045.11881793891
  0
LINE
  5
648
100
AcDbEntity
  8
0
100
AcDbLine
  6
BYBLOCK
 62
0
370
  -2
 10
4632.37338687848
 20
3005.11881793891
 11
4625.70672021181
 21
3045.11881793891
  0
LINE
  5
649
100
AcDbEntity
  8
0
100
AcDbLine
  6
BYBLOCK
 62
0
370
  -2
 10
4625.70672021181
 20
3045.11881793891
 11
4625.70672021181
 21
3005.11881793891
  0
LINE
  5
64A
100
AcDbEntity
  8
AM_5
100
AcDbLine
  6
BYLAYER
 10
2770.54094045772
 20
4696.92752201056
 11
3393.54094691947
 21
4696.92752201056
  0
LINE
  5
64B
100
AcDbEntity
  8
AM_5
100
AcDbLine
  6
BYLAYER
 10
2865.48716033244
 20
4698.92752201056
 11
3393.54094691947
 21
4698.92752201056
  0
LINE
  5
64C
100
AcDbEntity
  8
AM_5
100
AcDbLine
  6
BYLAYER
 10
3368.54094691947
 20
4656.92752201056
 11
3368.54094691947
 21
4616.92752201056
  0
LINE
  5
64D
100
AcDbEntity
  8
AM_5
100
AcDbLine
  6
BYLAYER
 10
3368.54094691947
 20
4738.92752201056
 11
3368.54094691947
 21
4846.14418867723
  0
LINE
  5
64E
100
AcDbEntity
  8
AM_5
100
AcDbLine
  6
BYLAYER
 10
3368.54094691947
 20
4696.92752201056
 11
3368.54094691947
 21
4698.92752201056
  0
TEXT
  5
64F
100
AcDbEntity
  8
AM_5
100
AcDbText
  6
BYLAYER
 10
3352.91594691946
 20
4796.28585534389
 40
65
  1
2
  7
Font_0
 50
90
 72
1
 11
3320.41594691946
 21
4812.53585534389
100
AcDbText
 73
2
  0
LINE
  5
650
100
AcDbEntity
  8
0
100
AcDbLine
  6
BYBLOCK
 62
0
370
  -2
 10
3361.8742802528
 20
4656.92752201056
 11
3368.54094691947
 21
4696.92752201056
  0
LINE
  5
651
100
AcDbEntity
  8
0
100
AcDbLine
  6
BYBLOCK
 62
0
370
  -2
 10
3375.20761358613
 20
4656.92752201056
 11
3368.54094691947
 21
4696.92752201056
  0
LINE
  5
652
100
AcDbEntity
  8
0
100
AcDbLine
  6
BYBLOCK
 62
0
370
  -2
 10
3368.54094691947
 20
4696.92752201056
 11
3368.54094691947
 21
4656.92752201056
  0
LINE
  5
653
100
AcDbEntity
  8
0
100
AcDbLine
  6
BYBLOCK
 62
0
370
  -2
 10
3375.20761358613
 20
4738.92752201056
 11
3368.54094691947
 21
4698.92752201056
  0
LINE
  5
654
100
AcDbEntity
  8
0
100
AcDbLine
  6
BYBLOCK
 62
0
370
  -2
 10
3361.8742802528
 20
4738.92752201056
 11
3368.54094691947
 21
4698.92752201056
  0
LINE
  5
655
100
AcDbEntity
  8
0
100
AcDbLine
  6
BYBLOCK
 62
0
370
  -2
 10
3368.54094691947
 20
4698.92752201056
 11
3368.54094691947
 21
4738.92752201056
  0
LINE
  5
656
100
AcDbEntity
  8
AM_5
100
AcDbLine
  6
BYLAYER
 10
2773.54094691941
 20
4596.92752201057
 11
3113.54094691945
 21
4596.92752201057
  0
LINE
  5
657
100
AcDbEntity
  8
AM_5
100
AcDbLine
  6
BYLAYER
 10
2770.54915763236
 20
4696.92752201056
 11
3113.54094691945
 21
4696.92752201056
  0
LINE
  5
658
100
AcDbEntity
  8
AM_5
100
AcDbLine
  6
BYLAYER
 10
3088.54094691945
 20
4556.92752201057
 11
3088.54094691945
 21
4516.92752201057
  0
LINE
  5
659
100
AcDbEntity
  8
AM_5
100
AcDbLine
  6
BYLAYER
 10
3088.54094691945
 20
4736.92752201056
 11
3088.54094691945
 21
4939.19895058199
  0
LINE
  5
65A
100
AcDbEntity
  8
AM_5
100
AcDbLine
  6
BYLAYER
 10
3088.54094691945
 20
4596.92752201057
 11
3088.54094691945
 21
4696.92752201056
  0
TEXT
  5
65B
100
AcDbEntity
  8
AM_5
100
AcDbText
  6
BYLAYER
 10
3072.91594691945
 20
4809.31323629627
 40
65
  1
100
  7
Font_0
 50
90
 72
1
 11
3040.41594691945
 21
4858.06323629627
100
AcDbText
 73
2
  0
LINE
  5
65C
100
AcDbEntity
  8
0
100
AcDbLine
  6
BYBLOCK
 62
0
370
  -2
 10
3081.87428025278
 20
4556.92752201057
 11
3088.54094691945
 21
4596.92752201057
  0
LINE
  5
65D
100
AcDbEntity
  8
0
100
AcDbLine
  6
BYBLOCK
 62
0
370
  -2
 10
3095.20761358612
 20
4556.92752201057
 11
3088.54094691945
 21
4596.92752201057
  0
LINE
  5
65E
100
AcDbEntity
  8
0
100
AcDbLine
  6
BYBLOCK
 62
0
370
  -2
 10
3088.54094691945
 20
4596.92752201057
 11
3088.54094691945
 21
4556.92752201057
  0
LINE
  5
65F
100
AcDbEntity
  8
0
100
AcDbLine
  6
BYBLOCK
 62
0
370
  -2
 10
3095.20761358612
 20
4736.92752201056
 11
3088.54094691945
 21
4696.92752201056
  0
LINE
  5
660
100
AcDbEntity
  8
0
100
AcDbLine
  6
BYBLOCK
 62
0
370
  -2
 10
3081.87428025278
 20
4736.92752201056
 11
3088.54094691945
 21
4696.92752201056
  0
LINE
  5
661
100
AcDbEntity
  8
0
100
AcDbLine
  6
BYBLOCK
 62
0
370
  -2
 10
3088.54094691945
 20
4696.92752201056
 11
3088.54094691945
 21
4736.92752201056
  0
LINE
  5
662
100
AcDbEntity
  8
AM_5
100
AcDbLine
  6
BYLAYER
 10
2770.54094045772
 20
4696.92752201056
 11
3253.54094691947
 21
4696.92752201056
  0
LINE
  5
663
100
AcDbEntity
  8
AM_5
100
AcDbLine
  6
BYLAYER
 10
2796.54094691941
 20
3436.92751725301
 11
3253.54094691947
 21
3436.92751725301
  0
LINE
  5
664
100
AcDbEntity
  8
AM_5
100
AcDbLine
  6
BYLAYER
 10
3228.54094691947
 20
4656.92752201056
 11
3228.54094691947
 21
3476.92751725301
  0
TEXT
  5
665
100
AcDbEntity
  8
AM_5
100
AcDbText
  6
BYLAYER
 10
3212.91594691948
 20
3969.42751963179
 40
65
  1
H=1260
  7
Font_0
 50
90
 72
1
 11
3180.41594691948
 21
4066.92751963179
100
AcDbText
 73
2
  0
LINE
  5
666
100
AcDbEntity
  8
0
100
AcDbLine
  6
BYBLOCK
 62
0
370
  -2
 10
3221.87428025281
 20
4656.92752201056
 11
3228.54094691947
 21
4696.92752201056
  0
LINE
  5
667
100
AcDbEntity
  8
0
100
AcDbLine
  6
BYBLOCK
 62
0
370
  -2
 10
3235.20761358614
 20
4656.92752201056
 11
3228.54094691947
 21
4696.92752201056
  0
LINE
  5
668
100
AcDbEntity
  8
0
100
AcDbLine
  6
BYBLOCK
 62
0
370
  -2
 10
3228.54094691947
 20
4696.92752201056
 11
3228.54094691947
 21
4656.92752201056
  0
LINE
  5
669
100
AcDbEntity
  8
0
100
AcDbLine
  6
BYBLOCK
 62
0
370
  -2
 10
3235.20761358614
 20
3476.92751725301
 11
3228.54094691947
 21
3436.92751725301
  0
LINE
  5
66A
100
AcDbEntity
  8
0
100
AcDbLine
  6
BYBLOCK
 62
0
370
  -2
 10
3221.87428025281
 20
3476.92751725301
 11
3228.54094691947
 21
3436.92751725301
  0
LINE
  5
66B
100
AcDbEntity
  8
0
100
AcDbLine
  6
BYBLOCK
 62
0
370
  -2
 10
3228.54094691947
 20
3436.92751725301
 11
3228.54094691947
 21
3476.92751725301
  0
LINE
  5
66C
100
AcDbEntity
  8
AM_5
100
AcDbLine
  6
BYLAYER
 10
6017.37338687847
 20
3045.11881793891
 11
6360.70672021181
 21
3045.11881793891
  0
LINE
  5
66D
100
AcDbEntity
  8
AM_5
100
AcDbLine
  6
BYLAYER
 10
6057.01485270994
 20
3058.45215127225
 11
6360.70672021181
 21
3058.45215127225
  0
LINE
  5
66E
100
AcDbEntity
  8
AM_5
100
AcDbLine
  6
BYLAYER
 10
6335.70672021181
 20
3005.11881793891
 11
6335.70672021181
 21
2965.11881793891
  0
LINE
  5
66F
100
AcDbEntity
  8
AM_5
100
AcDbLine
  6
BYLAYER
 10
6335.70672021181
 20
3098.45215127225
 11
6335.70672021181
 21
3169.70215127225
  0
LINE
  5
670
100
AcDbEntity
  8
AM_5
100
AcDbLine
  6
BYLAYER
 10
6335.70672021181
 20
3045.11881793891
 11
6335.70672021181
 21
3058.45215127225
  0
LINE
  5
671
100
AcDbEntity
  8
0
100
AcDbLine
  6
BYBLOCK
 62
0
370
  -2
 10
6329.04005354515
 20
3005.11881793891
 11
6335.70672021181
 21
3045.11881793891
  0
LINE
  5
672
100
AcDbEntity
  8
0
100
AcDbLine
  6
BYBLOCK
 62
0
370
  -2
 10
6342.37338687848
 20
3005.11881793891
 11
6335.70672021181
 21
3045.11881793891
  0
LINE
  5
673
100
AcDbEntity
  8
0
100
AcDbLine
  6
BYBLOCK
 62
0
370
  -2
 10
6335.70672021181
 20
3045.11881793891
 11
6335.70672021181
 21
3005.11881793891
  0
LINE
  5
674
100
AcDbEntity
  8
0
100
AcDbLine
  6
BYBLOCK
 62
0
370
  -2
 10
6342.37338687848
 20
3098.45215127225
 11
6335.70672021181
 21
3058.45215127225
  0
LINE
  5
675
100
AcDbEntity
  8
0
100
AcDbLine
  6
BYBLOCK
 62
0
370
  -2
 10
6329.04005354515
 20
3098.45215127225
 11
6335.70672021181
 21
3058.45215127225
  0
LINE
  5
676
100
AcDbEntity
  8
0
100
AcDbLine
  6
BYBLOCK
 62
0
370
  -2
 10
6335.70672021181
 20
3058.45215127225
 11
6335.70672021181
 21
3098.45215127225
  0
LINE
  5
677
100
AcDbEntity
  8
AM_5
100
AcDbLine
  6
BYLAYER
 10
6017.37338687849
 20
2431.78548460271
 11
6360.70672021181
 21
2431.7854846027
  0
LINE
  5
678
100
AcDbEntity
  8
AM_5
100
AcDbLine
  6
BYLAYER
 10
6017.37338687847
 20
3045.11881793891
 11
6360.70672021181
 21
3045.11881793891
  0
LINE
  5
679
100
AcDbEntity
  8
AM_5
100
AcDbLine
  6
BYLAYER
 10
6335.70672021181
 20
2471.7854846027
 11
6335.70672021181
 21
3005.11881793891
  0
TEXT
  5
67A
100
AcDbEntity
  8
AM_5
100
AcDbText
  6
BYLAYER
 10
6320.08172021182
 20
2705.95215127081
 40
65
  1
92
  7
Font_0
 50
90
 72
1
 11
6287.58172021182
 21
2738.45215127081
100
AcDbText
 73
2
  0
LINE
  5
67B
100
AcDbEntity
  8
0
100
AcDbLine
  6
BYBLOCK
 62
0
370
  -2
 10
6342.37338687848
 20
2471.7854846027
 11
6335.70672021181
 21
2431.7854846027
  0
LINE
  5
67C
100
AcDbEntity
  8
0
100
AcDbLine
  6
BYBLOCK
 62
0
370
  -2
 10
6329.04005354515
 20
2471.7854846027
 11
6335.70672021181
 21
2431.7854846027
  0
LINE
  5
67D
100
AcDbEntity
  8
0
100
AcDbLine
  6
BYBLOCK
 62
0
370
  -2
 10
6335.70672021181
 20
2431.7854846027
 11
6335.70672021181
 21
2471.7854846027
  0
LINE
  5
67E
100
AcDbEntity
  8
0
100
AcDbLine
  6
BYBLOCK
 62
0
370
  -2
 10
6329.04005354515
 20
3005.11881793891
 11
6335.70672021181
 21
3045.11881793891
  0
LINE
  5
67F
100
AcDbEntity
  8
0
100
AcDbLine
  6
BYBLOCK
 62
0
370
  -2
 10
6342.37338687848
 20
3005.11881793891
 11
6335.70672021181
 21
3045.11881793891
  0
LINE
  5
680
100
AcDbEntity
  8
0
100
AcDbLine
  6
BYBLOCK
 62
0
370
  -2
 10
6335.70672021181
 20
3045.11881793891
 11
6335.70672021181
 21
3005.11881793891
  0
LINE
  5
681
100
AcDbEntity
  8
AM_5
100
AcDbLine
  6
BYLAYER
 10
6024.04003627868
 20
898.452153532429
 11
6360.70672021181
 21
898.452153532429
  0
LINE
  5
682
100
AcDbEntity
  8
AM_5
100
AcDbLine
  6
BYLAYER
 10
6024.04005354515
 20
911.78548460558
 11
6360.70672021181
 21
911.785484605579
  0
LINE
  5
683
100
AcDbEntity
  8
AM_5
100
AcDbLine
  6
BYLAYER
 10
6335.70672021181
 20
951.78548460558
 11
6335.70672021181
 21
991.78548460558
  0
LINE
  5
684
100
AcDbEntity
  8
AM_5
100
AcDbLine
  6
BYLAYER
 10
6335.70672021181
 20
858.452153532429
 11
6335.70672021181
 21
769.218820199095
  0
LINE
  5
685
100
AcDbEntity
  8
AM_5
100
AcDbLine
  6
BYLAYER
 10
6335.70672021181
 20
911.785484605579
 11
6335.70672021181
 21
898.452153532429
  0
LINE
  5
686
100
AcDbEntity
  8
0
100
AcDbLine
  6
BYBLOCK
 62
0
370
  -2
 10
6342.37338687848
 20
951.785484605579
 11
6335.70672021181
 21
911.785484605579
  0
LINE
  5
687
100
AcDbEntity
  8
0
100
AcDbLine
  6
BYBLOCK
 62
0
370
  -2
 10
6329.04005354515
 20
951.785484605579
 11
6335.70672021181
 21
911.785484605579
  0
LINE
  5
688
100
AcDbEntity
  8
0
100
AcDbLine
  6
BYBLOCK
 62
0
370
  -2
 10
6335.70672021181
 20
911.785484605579
 11
6335.70672021181
 21
951.785484605579
  0
LINE
  5
689
100
AcDbEntity
  8
0
100
AcDbLine
  6
BYBLOCK
 62
0
370
  -2
 10
6329.04005354515
 20
858.452153532429
 11
6335.70672021181
 21
898.452153532429
  0
LINE
  5
68A
100
AcDbEntity
  8
0
100
AcDbLine
  6
BYBLOCK
 62
0
370
  -2
 10
6342.37338687848
 20
858.452153532429
 11
6335.70672021181
 21
898.452153532429
  0
LINE
  5
68B
100
AcDbEntity
  8
0
100
AcDbLine
  6
BYBLOCK
 62
0
370
  -2
 10
6335.70672021181
 20
898.452153532429
 11
6335.70672021181
 21
858.452153532429
  0
LINE
  5
68C
100
AcDbEntity
  8
AM_5
100
AcDbLine
  6
BYLAYER
 10
4674.85739456175
 20
3245.11881793891
 11
5197.21798968209
 21
3245.11881793891
  0
LINE
  5
68D
100
AcDbEntity
  8
AM_5
100
AcDbLine
  6
BYLAYER
 10
5197.21798968209
 20
3245.11881793891
 11
5376.37801239815
 21
2934.68491335699
  0
LINE
  5
68E
100
AcDbEntity
  8
AM_5
100
AcDbLine
  6
CONTINUOUS
 10
5376.37801239815
 20
2934.68491335699
 11
5392.37338687847
 21
2906.9694304055
  0
LINE
  5
68F
100
AcDbEntity
  8
AM_5
100
AcDbLine
  6
CONTINUOUS
 10
5372.72919986203
 20
2932.57908236621
 11
5392.37338687847
 21
2906.9694304055
  0
LINE
  5
690
100
AcDbEntity
  8
AM_5
100
AcDbLine
  6
CONTINUOUS
 10
5392.37338687847
 20
2906.9694304055
 11
5380.02682493428
 21
2936.79074434777
  0
TEXT
  5
691
100
AcDbEntity
  8
AM_5
 62
2
100
AcDbText
  6
BYLAYER
 62
2
 10
4649.85739456175
 20
3245.11881793891
 40
50
  1
 
  7
Font_0
 72
2
 11
4674.85739456175
 21
3245.11881793891
100
AcDbText
  0
LINE
  5
692
100
AcDbEntity
  8
AM_5
100
AcDbLine
  6
BYLAYER
 10
5013.08884521723
 20
2228.45215127224
 11
5317.19601709028
 21
2228.45215127224
  0
LINE
  5
693
100
AcDbEntity
  8
AM_5
100
AcDbLine
  6
BYLAYER
 10
5317.19601709028
 20
2228.45215127224
 11
5406.37338687848
 21
2073.99241591371
  0
LINE
  5
694
100
AcDbEntity
  8
AM_5
100
AcDbLine
  6
CONTINUOUS
 10
5406.37338687848
 20
2073.99241591371
 11
5422.37338687848
 21
2046.2796029926
  0
LINE
  5
695
100
AcDbEntity
  8
AM_5
100
AcDbLine
  6
CONTINUOUS
 10
5402.72492585853
 20
2071.88597596171
 11
5422.37338687848
 21
2046.2796029926
  0
LINE
  5
696
100
AcDbEntity
  8
AM_5
100
AcDbLine
  6
CONTINUOUS
 10
5422.37338687848
 20
2046.2796029926
 11
5410.02184789844
 21
2076.09885586571
  0
TEXT
  5
697
100
AcDbEntity
  8
AM_5
 62
2
100
AcDbText
  6
BYLAYER
 62
2
 10
4988.08884521723
 20
2228.45215127224
 40
50
  1
 
  7
Font_0
 72
2
 11
5013.08884521723
 21
2228.45215127224
100
AcDbText
  0
LINE
  5
698
100
AcDbEntity
  8
AM_5
100
AcDbLine
  6
BYLAYER
 10
5565.7067202118
 20
1610.13079600647
 11
5885.70672021182
 21
1610.13079600647
  0
TEXT
  5
699
100
AcDbEntity
  8
AM_5
100
AcDbText
  6
BYLAYER
 10
5660.70672021181
 20
1642.77960553028
 40
65
  1
(60)
  7
Font_0
 72
1
 11
5725.70672021181
 21
1675.27960553028
100
AcDbText
 73
2
  0
LINE
  5
69A
100
AcDbEntity
  8
0
100
AcDbLine
  6
BYBLOCK
 62
0
370
  -2
 10
5565.7067202118
 20
1603.4641293398
 11
5525.7067202118
 21
1610.13079600647
  0
LINE
  5
69B
100
AcDbEntity
  8
0
100
AcDbLine
  6
BYBLOCK
 62
0
370
  -2
 10
5565.7067202118
 20
1616.79746267314
 11
5525.7067202118
 21
1610.13079600647
  0
LINE
  5
69C
100
AcDbEntity
  8
0
100
AcDbLine
  6
BYBLOCK
 62
0
370
  -2
 10
5525.7067202118
 20
1610.13079600647
 11
5565.7067202118
 21
1610.13079600647
  0
LINE
  5
69D
100
AcDbEntity
  8
0
100
AcDbLine
  6
BYBLOCK
 62
0
370
  -2
 10
5885.70672021182
 20
1616.79746267314
 11
5925.70672021182
 21
1610.13079600647
  0
LINE
  5
69E
100
AcDbEntity
  8
0
100
AcDbLine
  6
BYBLOCK
 62
0
370
  -2
 10
5885.70672021182
 20
1603.4641293398
 11
5925.70672021182
 21
1610.13079600647
  0
LINE
  5
69F
100
AcDbEntity
  8
0
100
AcDbLine
  6
BYBLOCK
 62
0
370
  -2
 10
5925.70672021182
 20
1610.13079600647
 11
5885.70672021182
 21
1610.13079600647
  0
LINE
  5
6A0
100
AcDbEntity
  8
AM_5
100
AcDbLine
  6
BYLAYER
 10
2770.54094045772
 20
4696.92752201056
 11
3393.54094691946
 21
4696.92752201056
  0
LINE
  5
6A1
100
AcDbEntity
  8
AM_5
100
AcDbLine
  6
BYLAYER
 10
3368.54094691946
 20
4656.92752201056
 11
3368.54094691946
 21
2761.92752201056
  0
TEXT
  5
6A2
100
AcDbEntity
  8
AM_5
100
AcDbText
  6
BYLAYER
 10
3352.91594691946
 20
3579.42752201056
 40
65
  1
GLH=1975
  7
Font_0
 50
90
 72
1
 11
3320.41594691946
 21
3709.42752201056
100
AcDbText
 73
2
  0
LINE
  5
6A3
100
AcDbEntity
  8
0
100
AcDbLine
  6
BYBLOCK
 62
0
370
  -2
 10
3361.8742802528
 20
4656.92752201056
 11
3368.54094691946
 21
4696.92752201056
  0
LINE
  5
6A4
100
AcDbEntity
  8
0
100
AcDbLine
  6
BYBLOCK
 62
0
370
  -2
 10
3375.20761358613
 20
4656.92752201056
 11
3368.54094691946
 21
4696.92752201056
  0
LINE
  5
6A5
100
AcDbEntity
  8
0
100
AcDbLine
  6
BYBLOCK
 62
0
370
  -2
 10
3368.54094691946
 20
4696.92752201056
 11
3368.54094691946
 21
4656.92752201056
  0
LINE
  5
6A6
100
AcDbEntity
  8
0
100
AcDbLine
  6
BYBLOCK
 62
0
370
  -2
 10
3375.20761358613
 20
2761.92752201056
 11
3368.54094691946
 21
2721.92752201056
  0
LINE
  5
6A7
100
AcDbEntity
  8
0
100
AcDbLine
  6
BYBLOCK
 62
0
370
  -2
 10
3361.8742802528
 20
2761.92752201056
 11
3368.54094691946
 21
2721.92752201056
  0
LINE
  5
6A8
100
AcDbEntity
  8
0
100
AcDbLine
  6
BYBLOCK
 62
0
370
  -2
 10
3368.54094691946
 20
2721.92752201056
 11
3368.54094691946
 21
2761.92752201056
  0
LINE
  5
6A9
100
AcDbEntity
  8
AM_5
100
AcDbLine
  6
BYLAYER
 10
3143.54094691942
 20
2121.92752201056
 11
3393.54094691946
 21
2121.92752201056
  0
LINE
  5
6AA
100
AcDbEntity
  8
AM_5
100
AcDbLine
  6
BYLAYER
 10
3368.54094691946
 20
2161.92752201056
 11
3368.54094691946
 21
2681.92752201057
  0
TEXT
  5
6AB
100
AcDbEntity
  8
AM_5
100
AcDbText
  6
BYLAYER
 10
3352.91594691946
 20
2373.17752201056
 40
65
  1
600
  7
Font_0
 50
90
 72
1
 11
3320.41594691946
 21
2421.92752201056
100
AcDbText
 73
2
  0
LINE
  5
6AC
100
AcDbEntity
  8
0
100
AcDbLine
  6
BYBLOCK
 62
0
370
  -2
 10
3375.20761358613
 20
2161.92752201056
 11
3368.54094691946
 21
2121.92752201056
  0
LINE
  5
6AD
100
AcDbEntity
  8
0
100
AcDbLine
  6
BYBLOCK
 62
0
370
  -2
 10
3361.8742802528
 20
2161.92752201056
 11
3368.54094691946
 21
2121.92752201056
  0
LINE
  5
6AE
100
AcDbEntity
  8
0
100
AcDbLine
  6
BYBLOCK
 62
0
370
  -2
 10
3368.54094691946
 20
2121.92752201056
 11
3368.54094691946
 21
2161.92752201056
  0
LINE
  5
6AF
100
AcDbEntity
  8
0
100
AcDbLine
  6
BYBLOCK
 62
0
370
  -2
 10
3361.8742802528
 20
2681.92752201057
 11
3368.54094691946
 21
2721.92752201057
  0
LINE
  5
6B0
100
AcDbEntity
  8
0
100
AcDbLine
  6
BYBLOCK
 62
0
370
  -2
 10
3375.20761358613
 20
2681.92752201057
 11
3368.54094691946
 21
2721.92752201057
  0
LINE
  5
6B1
100
AcDbEntity
  8
0
100
AcDbLine
  6
BYBLOCK
 62
0
370
  -2
 10
3368.54094691946
 20
2721.92752201057
 11
3368.54094691946
 21
2681.92752201057
  0
LINE
  5
6B2
100
AcDbEntity
  8
AM_5
100
AcDbLine
  6
BYLAYER
 10
7167.86825885488
 20
4789.0510110549
 11
7717.37338687848
 21
4789.0510110549
  0
LINE
  5
6B3
100
AcDbEntity
  8
AM_5
100
AcDbLine
  6
BYLAYER
 10
7167.86825885488
 20
4135.71767772157
 11
7717.37338687848
 21
4135.71767772157
  0
LINE
  5
6B4
100
AcDbEntity
  8
AM_5
100
AcDbLine
  6
BYLAYER
 10
7692.37338687848
 20
4749.0510110549
 11
7692.37338687848
 21
4175.71767772157
  0
TEXT
  5
6B5
100
AcDbEntity
  8
AM_5
100
AcDbText
  6
BYLAYER
 10
7676.74838687848
 20
4429.88434438823
 40
65
  1
98
  7
Font_0
 50
90
 72
1
 11
7644.24838687848
 21
4462.38434438823
100
AcDbText
 73
2
  0
LINE
  5
6B6
100
AcDbEntity
  8
0
100
AcDbLine
  6
BYBLOCK
 62
0
370
  -2
 10
7685.70672021181
 20
4749.0510110549
 11
7692.37338687848
 21
4789.0510110549
  0
LINE
  5
6B7
100
AcDbEntity
  8
0
100
AcDbLine
  6
BYBLOCK
 62
0
370
  -2
 10
7699.04005354515
 20
4749.0510110549
 11
7692.37338687848
 21
4789.0510110549
  0
LINE
  5
6B8
100
AcDbEntity
  8
0
100
AcDbLine
  6
BYBLOCK
 62
0
370
  -2
 10
7692.37338687848
 20
4789.0510110549
 11
7692.37338687848
 21
4749.0510110549
  0
LINE
  5
6B9
100
AcDbEntity
  8
0
100
AcDbLine
  6
BYBLOCK
 62
0
370
  -2
 10
7699.04005354515
 20
4175.71767772157
 11
7692.37338687848
 21
4135.71767772157
  0
LINE
  5
6BA
100
AcDbEntity
  8
0
100
AcDbLine
  6
BYBLOCK
 62
0
370
  -2
 10
7685.70672021181
 20
4175.71767772157
 11
7692.37338687848
 21
4135.71767772157
  0
LINE
  5
6BB
100
AcDbEntity
  8
0
100
AcDbLine
  6
BYBLOCK
 62
0
370
  -2
 10
7692.37338687848
 20
4135.71767772157
 11
7692.37338687848
 21
4175.71767772157
  0
LINE
  5
6BC
100
AcDbEntity
  8
AM_5
100
AcDbLine
  6
BYLAYER
 10
4625.70672021181
 20
4487.38434438824
 11
4625.70672021181
 21
5270.71767772156
  0
LINE
  5
6BD
100
AcDbEntity
  8
AM_5
100
AcDbLine
  6
BYLAYER
 10
5072.37338687848
 20
4790.71767772156
 11
5072.37338687848
 21
5270.71767772156
  0
LINE
  5
6BE
100
AcDbEntity
  8
AM_5
100
AcDbLine
  6
BYLAYER
 10
4665.70672021181
 20
5245.71767772156
 11
5032.37338687848
 21
5245.71767772156
  0
TEXT
  5
6BF
100
AcDbEntity
  8
AM_5
100
AcDbText
  6
BYLAYER
 10
4816.54005354515
 20
5261.34267772156
 40
65
  1
67
  7
Font_0
 72
1
 11
4849.04005354515
 21
5293.84267772156
100
AcDbText
 73
2
  0
LINE
  5
6C0
100
AcDbEntity
  8
0
100
AcDbLine
  6
BYBLOCK
 62
0
370
  -2
 10
4665.70672021181
 20
5239.05101105489
 11
4625.70672021181
 21
5245.71767772156
  0
LINE
  5
6C1
100
AcDbEntity
  8
0
100
AcDbLine
  6
BYBLOCK
 62
0
370
  -2
 10
4665.70672021181
 20
5252.38434438823
 11
4625.70672021181
 21
5245.71767772156
  0
LINE
  5
6C2
100
AcDbEntity
  8
0
100
AcDbLine
  6
BYBLOCK
 62
0
370
  -2
 10
4625.70672021181
 20
5245.71767772156
 11
4665.70672021181
 21
5245.71767772156
  0
LINE
  5
6C3
100
AcDbEntity
  8
0
100
AcDbLine
  6
BYBLOCK
 62
0
370
  -2
 10
5032.37338687848
 20
5252.38434438823
 11
5072.37338687848
 21
5245.71767772156
  0
LINE
  5
6C4
100
AcDbEntity
  8
0
100
AcDbLine
  6
BYBLOCK
 62
0
370
  -2
 10
5032.37338687848
 20
5239.05101105489
 11
5072.37338687848
 21
5245.71767772156
  0
LINE
  5
6C5
100
AcDbEntity
  8
0
100
AcDbLine
  6
BYBLOCK
 62
0
370
  -2
 10
5072.37338687848
 20
5245.71767772156
 11
5032.37338687848
 21
5245.71767772156
  0
LINE
  5
6C6
100
AcDbEntity
  8
AM_5
100
AcDbLine
  6
BYLAYER
 10
4625.70672021181
 20
4437.38434438823
 11
4625.70672021181
 21
3776.0510100549
  0
LINE
  5
6C7
100
AcDbEntity
  8
AM_5
100
AcDbLine
  6
BYLAYER
 10
5225.70672021182
 20
4120.71767772157
 11
5225.70672021182
 21
3776.0510100549
  0
LINE
  5
6C8
100
AcDbEntity
  8
AM_5
100
AcDbLine
  6
BYLAYER
 10
4665.70672021181
 20
3801.0510100549
 11
5185.70672021182
 21
3801.0510100549
  0
TEXT
  5
6C9
100
AcDbEntity
  8
AM_5
100
AcDbText
  6
BYLAYER
 10
4893.20672021182
 20
3816.6760100549
 40
65
  1
90
  7
Font_0
 72
1
 11
4925.70672021182
 21
3849.1760100549
100
AcDbText
 73
2
  0
LINE
  5
6CA
100
AcDbEntity
  8
0
100
AcDbLine
  6
BYBLOCK
 62
0
370
  -2
 10
4665.70672021181
 20
3794.38434338823
 11
4625.70672021181
 21
3801.0510100549
  0
LINE
  5
6CB
100
AcDbEntity
  8
0
100
AcDbLine
  6
BYBLOCK
 62
0
370
  -2
 10
4665.70672021181
 20
3807.71767672156
 11
4625.70672021181
 21
3801.0510100549
  0
LINE
  5
6CC
100
AcDbEntity
  8
0
100
AcDbLine
  6
BYBLOCK
 62
0
370
  -2
 10
4625.70672021181
 20
3801.0510100549
 11
4665.70672021181
 21
3801.0510100549
  0
LINE
  5
6CD
100
AcDbEntity
  8
0
100
AcDbLine
  6
BYBLOCK
 62
0
370
  -2
 10
5185.70672021182
 20
3807.71767672156
 11
5225.70672021182
 21
3801.0510100549
  0
LINE
  5
6CE
100
AcDbEntity
  8
0
100
AcDbLine
  6
BYBLOCK
 62
0
370
  -2
 10
5185.70672021182
 20
3794.38434338823
 11
5225.70672021182
 21
3801.0510100549
  0
LINE
  5
6CF
100
AcDbEntity
  8
0
100
AcDbLine
  6
BYBLOCK
 62
0
370
  -2
 10
5225.70672021182
 20
3801.0510100549
 11
5185.70672021182
 21
3801.0510100549
  0
LINE
  5
6D0
100
AcDbEntity
  8
AM_5
100
AcDbLine
  6
BYLAYER
 10
4625.70672021181
 20
4437.38434438823
 11
4625.70672021181
 21
3636.05101005491
  0
LINE
  5
6D1
100
AcDbEntity
  8
AM_5
100
AcDbLine
  6
BYLAYER
 10
7492.37338687848
 20
4437.38434438823
 11
7492.37338687848
 21
3636.05101005491
  0
LINE
  5
6D2
100
AcDbEntity
  8
AM_5
100
AcDbLine
  6
BYLAYER
 10
4665.70672021181
 20
3661.05101005491
 11
7452.37338687848
 21
3661.05101005491
  0
TEXT
  5
6D3
100
AcDbEntity
  8
AM_5
100
AcDbText
  6
BYLAYER
 10
5961.54005354515
 20
3676.67601005491
 40
65
  1
W=1894
  7
Font_0
 72
1
 11
6059.04005354515
 21
3709.17601005491
100
AcDbText
 73
2
  0
LINE
  5
6D4
100
AcDbEntity
  8
0
100
AcDbLine
  6
BYBLOCK
 62
0
370
  -2
 10
4665.70672021181
 20
3654.38434338824
 11
4625.70672021181
 21
3661.05101005491
  0
LINE
  5
6D5
100
AcDbEntity
  8
0
100
AcDbLine
  6
BYBLOCK
 62
0
370
  -2
 10
4665.70672021181
 20
3667.71767672158
 11
4625.70672021181
 21
3661.05101005491
  0
LINE
  5
6D6
100
AcDbEntity
  8
0
100
AcDbLine
  6
BYBLOCK
 62
0
370
  -2
 10
4625.70672021181
 20
3661.05101005491
 11
4665.70672021181
 21
3661.05101005491
  0
LINE
  5
6D7
100
AcDbEntity
  8
0
100
AcDbLine
  6
BYBLOCK
 62
0
370
  -2
 10
7452.37338687848
 20
3667.71767672158
 11
7492.37338687848
 21
3661.05101005491
  0
LINE
  5
6D8
100
AcDbEntity
  8
0
100
AcDbLine
  6
BYBLOCK
 62
0
370
  -2
 10
7452.37338687848
 20
3654.38434338824
 11
7492.37338687848
 21
3661.05101005491
  0
LINE
  5
6D9
100
AcDbEntity
  8
0
100
AcDbLine
  6
BYBLOCK
 62
0
370
  -2
 10
7492.37338687848
 20
3661.05101005491
 11
7452.37338687848
 21
3661.05101005491
  0
LINE
  5
6DA
100
AcDbEntity
  8
AM_5
100
AcDbLine
  6
BYLAYER
 10
5285.70672021182
 20
4790.71767772156
 11
5285.70672021182
 21
5270.71767772156
  0
LINE
  5
6DB
100
AcDbEntity
  8
AM_5
100
AcDbLine
  6
BYLAYER
 10
6832.37338687848
 20
4790.71767772157
 11
6832.37338687848
 21
5270.71767772156
  0
LINE
  5
6DC
100
AcDbEntity
  8
AM_5
100
AcDbLine
  6
BYLAYER
 10
5325.70672021182
 20
5245.71767772156
 11
6792.37338687848
 21
5245.71767772156
  0
TEXT
  5
6DD
100
AcDbEntity
  8
AM_5
100
AcDbText
  6
BYLAYER
 10
5896.54005354515
 20
5261.34267772156
 40
65
  1
有効W=1696
  7
Font_0
 72
1
 11
6059.04005354515
 21
5293.84267772156
100
AcDbText
 73
2
  0
LINE
  5
6DE
100
AcDbEntity
  8
0
100
AcDbLine
  6
BYBLOCK
 62
0
370
  -2
 10
5325.70672021182
 20
5239.05101105489
 11
5285.70672021182
 21
5245.71767772156
  0
LINE
  5
6DF
100
AcDbEntity
  8
0
100
AcDbLine
  6
BYBLOCK
 62
0
370
  -2
 10
5325.70672021182
 20
5252.38434438823
 11
5285.70672021182
 21
5245.71767772156
  0
LINE
  5
6E0
100
AcDbEntity
  8
0
100
AcDbLine
  6
BYBLOCK
 62
0
370
  -2
 10
5285.70672021182
 20
5245.71767772156
 11
5325.70672021182
 21
5245.71767772156
  0
LINE
  5
6E1
100
AcDbEntity
  8
0
100
AcDbLine
  6
BYBLOCK
 62
0
370
  -2
 10
6792.37338687848
 20
5252.38434438823
 11
6832.37338687848
 21
5245.71767772156
  0
LINE
  5
6E2
100
AcDbEntity
  8
0
100
AcDbLine
  6
BYBLOCK
 62
0
370
  -2
 10
6792.37338687848
 20
5239.05101105489
 11
6832.37338687848
 21
5245.71767772156
  0
LINE
  5
6E3
100
AcDbEntity
  8
0
100
AcDbLine
  6
BYBLOCK
 62
0
370
  -2
 10
6832.37338687848
 20
5245.71767772156
 11
6792.37338687848
 21
5245.71767772156
  0
LINE
  5
6E4
100
AcDbEntity
  8
AM_5
100
AcDbLine
  6
BYLAYER
 10
7492.37338687848
 20
4487.38434438824
 11
7492.37338687848
 21
5270.71767772156
  0
LINE
  5
6E5
100
AcDbEntity
  8
AM_5
100
AcDbLine
  6
BYLAYER
 10
7045.70672021181
 20
4790.71767772157
 11
7045.70672021181
 21
5270.71767772156
  0
LINE
  5
6E6
100
AcDbEntity
  8
AM_5
100
AcDbLine
  6
BYLAYER
 10
7452.37338687848
 20
5245.71767772156
 11
7085.70672021181
 21
5245.71767772156
  0
TEXT
  5
6E7
100
AcDbEntity
  8
AM_5
100
AcDbText
  6
BYLAYER
 10
7236.54005354515
 20
5261.34267772156
 40
65
  1
67
  7
Font_0
 72
1
 11
7269.04005354515
 21
5293.84267772156
100
AcDbText
 73
2
  0
LINE
  5
6E8
100
AcDbEntity
  8
0
100
AcDbLine
  6
BYBLOCK
 62
0
370
  -2
 10
7452.37338687848
 20
5252.38434438823
 11
7492.37338687848
 21
5245.71767772156
  0
LINE
  5
6E9
100
AcDbEntity
  8
0
100
AcDbLine
  6
BYBLOCK
 62
0
370
  -2
 10
7452.37338687848
 20
5239.05101105489
 11
7492.37338687848
 21
5245.71767772156
  0
LINE
  5
6EA
100
AcDbEntity
  8
0
100
AcDbLine
  6
BYBLOCK
 62
0
370
  -2
 10
7492.37338687848
 20
5245.71767772156
 11
7452.37338687848
 21
5245.71767772156
  0
LINE
  5
6EB
100
AcDbEntity
  8
0
100
AcDbLine
  6
BYBLOCK
 62
0
370
  -2
 10
7085.70672021181
 20
5239.05101105489
 11
7045.70672021181
 21
5245.71767772156
  0
LINE
  5
6EC
100
AcDbEntity
  8
0
100
AcDbLine
  6
BYBLOCK
 62
0
370
  -2
 10
7085.70672021181
 20
5252.38434438823
 11
7045.70672021181
 21
5245.71767772156
  0
LINE
  5
6ED
100
AcDbEntity
  8
0
100
AcDbLine
  6
BYBLOCK
 62
0
370
  -2
 10
7045.70672021181
 20
5245.71767772156
 11
7085.70672021181
 21
5245.71767772156
  0
LINE
  5
6EE
100
AcDbEntity
  8
AM_5
100
AcDbLine
  6
BYLAYER
 10
7492.37338687848
 20
4437.38434438823
 11
7492.37338687848
 21
3776.0510100549
  0
LINE
  5
6EF
100
AcDbEntity
  8
AM_5
100
AcDbLine
  6
BYLAYER
 10
6892.37338687847
 20
4120.71767772157
 11
6892.37338687847
 21
3776.0510100549
  0
LINE
  5
6F0
100
AcDbEntity
  8
AM_5
100
AcDbLine
  6
BYLAYER
 10
7452.37338687848
 20
3801.0510100549
 11
6932.37338687847
 21
3801.0510100549
  0
TEXT
  5
6F1
100
AcDbEntity
  8
AM_5
100
AcDbText
  6
BYLAYER
 10
7159.87338687848
 20
3816.6760100549
 40
65
  1
90
  7
Font_0
 72
1
 11
7192.37338687848
 21
3849.1760100549
100
AcDbText
 73
2
  0
LINE
  5
6F2
100
AcDbEntity
  8
0
100
AcDbLine
  6
BYBLOCK
 62
0
370
  -2
 10
7452.37338687848
 20
3807.71767672156
 11
7492.37338687848
 21
3801.0510100549
  0
LINE
  5
6F3
100
AcDbEntity
  8
0
100
AcDbLine
  6
BYBLOCK
 62
0
370
  -2
 10
7452.37338687848
 20
3794.38434338823
 11
7492.37338687848
 21
3801.0510100549
  0
LINE
  5
6F4
100
AcDbEntity
  8
0
100
AcDbLine
  6
BYBLOCK
 62
0
370
  -2
 10
7492.37338687848
 20
3801.0510100549
 11
7452.37338687848
 21
3801.0510100549
  0
LINE
  5
6F5
100
AcDbEntity
  8
0
100
AcDbLine
  6
BYBLOCK
 62
0
370
  -2
 10
6932.37338687847
 20
3794.38434338823
 11
6892.37338687847
 21
3801.0510100549
  0
LINE
  5
6F6
100
AcDbEntity
  8
0
100
AcDbLine
  6
BYBLOCK
 62
0
370
  -2
 10
6932.37338687847
 20
3807.71767672156
 11
6892.37338687847
 21
3801.0510100549
  0
LINE
  5
6F7
100
AcDbEntity
  8
0
100
AcDbLine
  6
BYBLOCK
 62
0
370
  -2
 10
6892.37338687847
 20
3801.0510100549
 11
6932.37338687847
 21
3801.0510100549
  0
LINE
  5
6F8
100
AcDbEntity
  8
AM_5
100
AcDbLine
  6
BYLAYER
 10
5225.70672021182
 20
4120.71767772157
 11
5225.70672021182
 21
3776.0510100549
  0
LINE
  5
6F9
100
AcDbEntity
  8
AM_5
100
AcDbLine
  6
BYLAYER
 10
6892.37338687847
 20
4120.71767772157
 11
6892.37338687847
 21
3776.0510100549
  0
LINE
  5
6FA
100
AcDbEntity
  8
AM_5
100
AcDbLine
  6
BYLAYER
 10
5265.70672021182
 20
3801.0510100549
 11
6852.37338687847
 21
3801.0510100549
  0
TEXT
  5
6FB
100
AcDbEntity
  8
AM_5
100
AcDbText
  6
BYLAYER
 10
5994.04005354515
 20
3816.6760100549
 40
65
  1
1714
  7
Font_0
 72
1
 11
6059.04005354515
 21
3849.1760100549
100
AcDbText
 73
2
  0
LINE
  5
6FC
100
AcDbEntity
  8
0
100
AcDbLine
  6
BYBLOCK
 62
0
370
  -2
 10
5265.70672021182
 20
3794.38434338823
 11
5225.70672021182
 21
3801.0510100549
  0
LINE
  5
6FD
100
AcDbEntity
  8
0
100
AcDbLine
  6
BYBLOCK
 62
0
370
  -2
 10
5265.70672021182
 20
3807.71767672156
 11
5225.70672021182
 21
3801.0510100549
  0
LINE
  5
6FE
100
AcDbEntity
  8
0
100
AcDbLine
  6
BYBLOCK
 62
0
370
  -2
 10
5225.70672021182
 20
3801.0510100549
 11
5265.70672021182
 21
3801.0510100549
  0
LINE
  5
6FF
100
AcDbEntity
  8
0
100
AcDbLine
  6
BYBLOCK
 62
0
370
  -2
 10
6852.37338687847
 20
3807.71767672156
 11
6892.37338687847
 21
3801.0510100549
  0
LINE
  5
700
100
AcDbEntity
  8
0
100
AcDbLine
  6
BYBLOCK
 62
0
370
  -2
 10
6852.37338687847
 20
3794.38434338823
 11
6892.37338687847
 21
3801.0510100549
  0
LINE
  5
701
100
AcDbEntity
  8
0
100
AcDbLine
  6
BYBLOCK
 62
0
370
  -2
 10
6892.37338687847
 20
3801.0510100549
 11
6852.37338687847
 21
3801.0510100549
  0
LINE
  5
702
100
AcDbEntity
  8
AM_5
100
AcDbLine
  6
BYLAYER
 10
5977.1161203497
 20
4659.0510110549
 11
5977.1161203497
 21
4339.0510110549
  0
TEXT
  5
703
100
AcDbEntity
  8
AM_5
100
AcDbText
  6
BYLAYER
 10
5944.46731082589
 20
4434.0510110549
 40
65
  1
(60)
  7
Font_0
 50
90
 72
1
 11
5911.96731082589
 21
4499.0510110549
100
AcDbText
 73
2
  0
LINE
  5
704
100
AcDbEntity
  8
0
100
AcDbLine
  6
BYBLOCK
 62
0
370
  -2
 10
5970.44945368303
 20
4659.0510110549
 11
5977.1161203497
 21
4699.0510110549
  0
LINE
  5
705
100
AcDbEntity
  8
0
100
AcDbLine
  6
BYBLOCK
 62
0
370
  -2
 10
5983.78278701637
 20
4659.0510110549
 11
5977.1161203497
 21
4699.0510110549
  0
LINE
  5
706
100
AcDbEntity
  8
0
100
AcDbLine
  6
BYBLOCK
 62
0
370
  -2
 10
5977.1161203497
 20
4699.0510110549
 11
5977.1161203497
 21
4659.0510110549
  0
LINE
  5
707
100
AcDbEntity
  8
0
100
AcDbLine
  6
BYBLOCK
 62
0
370
  -2
 10
5983.78278701637
 20
4339.0510110549
 11
5977.1161203497
 21
4299.0510110549
  0
LINE
  5
708
100
AcDbEntity
  8
0
100
AcDbLine
  6
BYBLOCK
 62
0
370
  -2
 10
5970.44945368303
 20
4339.0510110549
 11
5977.1161203497
 21
4299.0510110549
  0
LINE
  5
709
100
AcDbEntity
  8
0
100
AcDbLine
  6
BYBLOCK
 62
0
370
  -2
 10
5977.1161203497
 20
4299.0510110549
 11
5977.1161203497
 21
4339.0510110549
  0
LINE
  5
70A
100
AcDbEntity
  8
AM_5
100
AcDbLine
  6
BYLAYER
 10
3788.54094691947
 20
4716.92752201056
 11
3788.54094691947
 21
4921.92752201056
  0
LINE
  5
70B
100
AcDbEntity
  8
AM_5
100
AcDbLine
  6
BYLAYER
 10
3886.54094691947
 20
4716.92752201056
 11
3886.54094691947
 21
4921.92752201056
  0
LINE
  5
70C
100
AcDbEntity
  8
AM_5
100
AcDbLine
  6
BYLAYER
 10
3748.54094691947
 20
4896.92752201056
 11
3708.54094691947
 21
4896.92752201056
  0
LINE
  5
70D
100
AcDbEntity
  8
AM_5
100
AcDbLine
  6
BYLAYER
 10
3926.54094691947
 20
4896.92752201056
 11
4085.13856596709
 21
4896.92752201056
  0
LINE
  5
70E
100
AcDbEntity
  8
AM_5
100
AcDbLine
  6
BYLAYER
 10
3788.54094691947
 20
4896.92752201056
 11
3886.54094691947
 21
4896.92752201056
  0
TEXT
  5
70F
100
AcDbEntity
  8
AM_5
100
AcDbText
  6
BYLAYER
 10
3993.33975644328
 20
4912.55252201056
 40
65
  1
98
  7
Font_0
 72
1
 11
4025.83975644328
 21
4945.05252201056
100
AcDbText
 73
2
  0
LINE
  5
710
100
AcDbEntity
  8
0
100
AcDbLine
  6
BYBLOCK
 62
0
370
  -2
 10
3748.54094691947
 20
4903.59418867723
 11
3788.54094691947
 21
4896.92752201056
  0
LINE
  5
711
100
AcDbEntity
  8
0
100
AcDbLine
  6
BYBLOCK
 62
0
370
  -2
 10
3748.54094691947
 20
4890.2608553439
 11
3788.54094691947
 21
4896.92752201056
  0
LINE
  5
712
100
AcDbEntity
  8
0
100
AcDbLine
  6
BYBLOCK
 62
0
370
  -2
 10
3788.54094691947
 20
4896.92752201056
 11
3748.54094691947
 21
4896.92752201056
  0
LINE
  5
713
100
AcDbEntity
  8
0
100
AcDbLine
  6
BYBLOCK
 62
0
370
  -2
 10
3926.54094691947
 20
4890.2608553439
 11
3886.54094691947
 21
4896.92752201056
  0
LINE
  5
714
100
AcDbEntity
  8
0
100
AcDbLine
  6
BYBLOCK
 62
0
370
  -2
 10
3926.54094691947
 20
4903.59418867723
 11
3886.54094691947
 21
4896.92752201056
  0
LINE
  5
715
100
AcDbEntity
  8
0
100
AcDbLine
  6
BYBLOCK
 62
0
370
  -2
 10
3886.54094691947
 20
4896.92752201056
 11
3926.54094691947
 21
4896.92752201056
  0
LINE
  5
716
100
AcDbEntity
  8
AM_5
100
AcDbLine
  6
BYLAYER
 10
5229.04005354515
 20
4744.0510110549
 11
5229.04005354515
 21
5130.71767772156
  0
LINE
  5
717
100
AcDbEntity
  8
AM_5
100
AcDbLine
  6
BYLAYER
 10
5285.70672021182
 20
4790.71767772157
 11
5285.70672021182
 21
5130.71767772156
  0
LINE
  5
718
100
AcDbEntity
  8
AM_5
100
AcDbLine
  6
BYLAYER
 10
5189.04005354515
 20
5105.71767772156
 11
5149.04005354515
 21
5105.71767772156
  0
LINE
  5
719
100
AcDbEntity
  8
AM_5
100
AcDbLine
  6
BYLAYER
 10
5325.70672021182
 20
5105.71767772156
 11
5509.99481544991
 21
5105.71767772156
  0
LINE
  5
71A
100
AcDbEntity
  8
AM_5
100
AcDbLine
  6
BYLAYER
 10
5229.04005354515
 20
5105.71767772156
 11
5285.70672021182
 21
5105.71767772156
  0
TEXT
  5
71B
100
AcDbEntity
  8
AM_5
100
AcDbText
  6
BYLAYER
 10
5389.10076783087
 20
5121.34267772156
 40
65
  1
8.5
  7
Font_0
 72
1
 11
5437.85076783087
 21
5153.84267772156
100
AcDbText
 73
2
  0
LINE
  5
71C
100
AcDbEntity
  8
0
100
AcDbLine
  6
BYBLOCK
 62
0
370
  -2
 10
5189.04005354515
 20
5112.38434438823
 11
5229.04005354515
 21
5105.71767772156
  0
LINE
  5
71D
100
AcDbEntity
  8
0
100
AcDbLine
  6
BYBLOCK
 62
0
370
  -2
 10
5189.04005354515
 20
5099.05101105489
 11
5229.04005354515
 21
5105.71767772156
  0
LINE
  5
71E
100
AcDbEntity
  8
0
100
AcDbLine
  6
BYBLOCK
 62
0
370
  -2
 10
5229.04005354515
 20
5105.71767772156
 11
5189.04005354515
 21
5105.71767772156
  0
LINE
  5
71F
100
AcDbEntity
  8
0
100
AcDbLine
  6
BYBLOCK
 62
0
370
  -2
 10
5325.70672021182
 20
5099.05101105489
 11
5285.70672021182
 21
5105.71767772156
  0
LINE
  5
720
100
AcDbEntity
  8
0
100
AcDbLine
  6
BYBLOCK
 62
0
370
  -2
 10
5325.70672021182
 20
5112.38434438823
 11
5285.70672021182
 21
5105.71767772156
  0
LINE
  5
721
100
AcDbEntity
  8
0
100
AcDbLine
  6
BYBLOCK
 62
0
370
  -2
 10
5285.70672021182
 20
5105.71767772156
 11
5325.70672021182
 21
5105.71767772156
  0
LINE
  5
722
100
AcDbEntity
  8
AM_5
100
AcDbLine
  6
BYLAYER
 10
6889.04005354515
 20
4744.0510110549
 11
6889.04005354515
 21
5130.71767772156
  0
LINE
  5
723
100
AcDbEntity
  8
AM_5
100
AcDbLine
  6
BYLAYER
 10
6832.37338687848
 20
4790.71767772157
 11
6832.37338687848
 21
5130.71767772156
  0
LINE
  5
724
100
AcDbEntity
  8
AM_5
100
AcDbLine
  6
BYLAYER
 10
6929.04005354515
 20
5105.71767772156
 11
6969.04005354515
 21
5105.71767772156
  0
LINE
  5
725
100
AcDbEntity
  8
AM_5
100
AcDbLine
  6
BYLAYER
 10
6792.37338687848
 20
5105.71767772156
 11
6608.08529164038
 21
5105.71767772156
  0
LINE
  5
726
100
AcDbEntity
  8
AM_5
100
AcDbLine
  6
BYLAYER
 10
6889.04005354515
 20
5105.71767772156
 11
6832.37338687848
 21
5105.71767772156
  0
TEXT
  5
727
100
AcDbEntity
  8
AM_5
100
AcDbText
  6
BYLAYER
 10
6631.47933925943
 20
5121.34267772156
 40
65
  1
8.5
  7
Font_0
 72
1
 11
6680.22933925943
 21
5153.84267772156
100
AcDbText
 73
2
  0
LINE
  5
728
100
AcDbEntity
  8
0
100
AcDbLine
  6
BYBLOCK
 62
0
370
  -2
 10
6929.04005354515
 20
5099.05101105489
 11
6889.04005354515
 21
5105.71767772156
  0
LINE
  5
729
100
AcDbEntity
  8
0
100
AcDbLine
  6
BYBLOCK
 62
0
370
  -2
 10
6929.04005354515
 20
5112.38434438823
 11
6889.04005354515
 21
5105.71767772156
  0
LINE
  5
72A
100
AcDbEntity
  8
0
100
AcDbLine
  6
BYBLOCK
 62
0
370
  -2
 10
6889.04005354515
 20
5105.71767772156
 11
6929.04005354515
 21
5105.71767772156
  0
LINE
  5
72B
100
AcDbEntity
  8
0
100
AcDbLine
  6
BYBLOCK
 62
0
370
  -2
 10
6792.37338687848
 20
5112.38434438823
 11
6832.37338687848
 21
5105.71767772156
  0
LINE
  5
72C
100
AcDbEntity
  8
0
100
AcDbLine
  6
BYBLOCK
 62
0
370
  -2
 10
6792.37338687848
 20
5099.05101105489
 11
6832.37338687848
 21
5105.71767772156
  0
LINE
  5
72D
100
AcDbEntity
  8
0
100
AcDbLine
  6
BYBLOCK
 62
0
370
  -2
 10
6832.37338687848
 20
5105.71767772156
 11
6792.37338687848
 21
5105.71767772156
  0
LINE
  5
72E
100
AcDbEntity
  8
AM_5
100
AcDbLine
  6
BYLAYER
 10
3508.54094691946
 20
1996.92752201056
 11
3508.54094691946
 21
1836.92752201056
  0
LINE
  5
72F
100
AcDbEntity
  8
AM_5
100
AcDbLine
  6
BYLAYER
 10
4158.54094691946
 20
1996.92752201056
 11
4158.54094691946
 21
1836.92752201056
  0
LINE
  5
730
100
AcDbEntity
  8
AM_5
100
AcDbLine
  6
BYLAYER
 10
3548.54094691946
 20
1861.92752201056
 11
4118.54094691946
 21
1861.92752201056
  0
TEXT
  5
731
100
AcDbEntity
  8
AM_5
100
AcDbText
  6
BYLAYER
 10
3817.29094691946
 20
1877.55252201056
 40
65
  1
a
  7
Font_0
 72
1
 11
3833.54094691946
 21
1910.05252201056
100
AcDbText
 73
2
  0
LINE
  5
732
100
AcDbEntity
  8
0
100
AcDbLine
  6
BYBLOCK
 62
0
370
  -2
 10
3548.54094691946
 20
1855.26085534389
 11
3508.54094691946
 21
1861.92752201056
  0
LINE
  5
733
100
AcDbEntity
  8
0
100
AcDbLine
  6
BYBLOCK
 62
0
370
  -2
 10
3548.54094691946
 20
1868.59418867723
 11
3508.54094691946
 21
1861.92752201056
  0
LINE
  5
734
100
AcDbEntity
  8
0
100
AcDbLine
  6
BYBLOCK
 62
0
370
  -2
 10
3508.54094691946
 20
1861.92752201056
 11
3548.54094691946
 21
1861.92752201056
  0
LINE
  5
735
100
AcDbEntity
  8
0
100
AcDbLine
  6
BYBLOCK
 62
0
370
  -2
 10
4118.54094691946
 20
1868.59418867723
 11
4158.54094691946
 21
1861.92752201056
  0
LINE
  5
736
100
AcDbEntity
  8
0
100
AcDbLine
  6
BYBLOCK
 62
0
370
  -2
 10
4118.54094691946
 20
1855.26085534389
 11
4158.54094691946
 21
1861.92752201056
  0
LINE
  5
737
100
AcDbEntity
  8
0
100
AcDbLine
  6
BYBLOCK
 62
0
370
  -2
 10
4158.54094691946
 20
1861.92752201056
 11
4118.54094691946
 21
1861.92752201056
  0
LINE
  5
738
100
AcDbEntity
  8
AM_5
100
AcDbLine
  6
BYLAYER
 10
2468.54094691941
 20
1996.92752201056
 11
2468.54094691941
 21
1836.92752201056
  0
LINE
  5
739
100
AcDbEntity
  8
AM_5
100
AcDbLine
  6
BYLAYER
 10
3118.54094691942
 20
1996.92752201056
 11
3118.54094691942
 21
1836.92752201056
  0
LINE
  5
73A
100
AcDbEntity
  8
AM_5
100
AcDbLine
  6
BYLAYER
 10
2508.54094691942
 20
1861.92752201056
 11
3078.54094691942
 21
1861.92752201056
  0
TEXT
  5
73B
100
AcDbEntity
  8
AM_5
100
AcDbText
  6
BYLAYER
 10
2777.29094691941
 20
1877.55252201056
 40
65
  1
a
  7
Font_0
 72
1
 11
2793.54094691941
 21
1910.05252201056
100
AcDbText
 73
2
  0
LINE
  5
73C
100
AcDbEntity
  8
0
100
AcDbLine
  6
BYBLOCK
 62
0
370
  -2
 10
2508.54094691941
 20
1855.26085534389
 11
2468.54094691941
 21
1861.92752201056
  0
LINE
  5
73D
100
AcDbEntity
  8
0
100
AcDbLine
  6
BYBLOCK
 62
0
370
  -2
 10
2508.54094691941
 20
1868.59418867723
 11
2468.54094691941
 21
1861.92752201056
  0
LINE
  5
73E
100
AcDbEntity
  8
0
100
AcDbLine
  6
BYBLOCK
 62
0
370
  -2
 10
2468.54094691941
 20
1861.92752201056
 11
2508.54094691941
 21
1861.92752201056
  0
LINE
  5
73F
100
AcDbEntity
  8
0
100
AcDbLine
  6
BYBLOCK
 62
0
370
  -2
 10
3078.54094691942
 20
1868.59418867723
 11
3118.54094691942
 21
1861.92752201056
  0
LINE
  5
740
100
AcDbEntity
  8
0
100
AcDbLine
  6
BYBLOCK
 62
0
370
  -2
 10
3078.54094691942
 20
1855.26085534389
 11
3118.54094691942
 21
1861.92752201056
  0
LINE
  5
741
100
AcDbEntity
  8
0
100
AcDbLine
  6
BYBLOCK
 62
0
370
  -2
 10
3118.54094691942
 20
1861.92752201056
 11
3078.54094691942
 21
1861.92752201056
  0
LINE
  5
742
100
AcDbEntity
  8
AM_5
100
AcDbLine
  6
BYLAYER
 10
989.542097328703
 20
2146.92752201056
 11
989.542097328703
 21
2219.9275237504
  0
LINE
  5
743
100
AcDbEntity
  8
AM_5
100
AcDbLine
  6
BYLAYER
 10
2793.54092707962
 20
2146.92752201056
 11
2793.54092707962
 21
2219.9275237504
  0
LINE
  5
744
100
AcDbEntity
  8
AM_5
100
AcDbLine
  6
BYLAYER
 10
1029.5420973287
 20
2194.9275237504
 11
2753.54092707962
 21
2194.9275237504
  0
TEXT
  5
745
100
AcDbEntity
  8
AM_5
100
AcDbText
  6
BYLAYER
 10
1826.54151220416
 20
2210.5525237504
 40
65
  1
1804
  7
Font_0
 72
1
 11
1891.54151220416
 21
2243.0525237504
100
AcDbText
 73
2
  0
LINE
  5
746
100
AcDbEntity
  8
0
100
AcDbLine
  6
BYBLOCK
 62
0
370
  -2
 10
1029.5420973287
 20
2188.26085708374
 11
989.542097328703
 21
2194.9275237504
  0
LINE
  5
747
100
AcDbEntity
  8
0
100
AcDbLine
  6
BYBLOCK
 62
0
370
  -2
 10
1029.5420973287
 20
2201.59419041707
 11
989.542097328703
 21
2194.9275237504
  0
LINE
  5
748
100
AcDbEntity
  8
0
100
AcDbLine
  6
BYBLOCK
 62
0
370
  -2
 10
989.542097328703
 20
2194.9275237504
 11
1029.5420973287
 21
2194.9275237504
  0
LINE
  5
749
100
AcDbEntity
  8
0
100
AcDbLine
  6
BYBLOCK
 62
0
370
  -2
 10
2753.54092707962
 20
2201.59419041707
 11
2793.54092707962
 21
2194.9275237504
  0
LINE
  5
74A
100
AcDbEntity
  8
0
100
AcDbLine
  6
BYBLOCK
 62
0
370
  -2
 10
2753.54092707962
 20
2188.26085708374
 11
2793.54092707962
 21
2194.9275237504
  0
LINE
  5
74B
100
AcDbEntity
  8
0
100
AcDbLine
  6
BYBLOCK
 62
0
370
  -2
 10
2793.54092707962
 20
2194.9275237504
 11
2753.54092707962
 21
2194.9275237504
  0
LINE
  5
74C
100
AcDbEntity
  8
AM_5
100
AcDbLine
  6
BYLAYER
 10
6017.37338687849
 20
1411.78548460558
 11
6360.70672021181
 21
1411.78548460558
  0
LINE
  5
74D
100
AcDbEntity
  8
AM_5
100
AcDbLine
  6
BYLAYER
 10
6017.37338687847
 20
2431.78548460271
 11
6360.70672021181
 21
2431.7854846027
  0
LINE
  5
74E
100
AcDbEntity
  8
AM_5
100
AcDbLine
  6
BYLAYER
 10
6335.70672021181
 20
1451.78548460558
 11
6335.70672021181
 21
2391.7854846027
  0
TEXT
  5
74F
100
AcDbEntity
  8
AM_5
100
AcDbText
  6
BYLAYER
 10
6320.08172021181
 20
1759.28548460414
 40
65
  1
有効H=1093
  7
Font_0
 50
90
 72
1
 11
6287.58172021181
 21
1921.78548460414
100
AcDbText
 73
2
  0
LINE
  5
750
100
AcDbEntity
  8
0
100
AcDbLine
  6
BYBLOCK
 62
0
370
  -2
 10
6342.37338687848
 20
1451.78548460558
 11
6335.70672021181
 21
1411.78548460558
  0
LINE
  5
751
100
AcDbEntity
  8
0
100
AcDbLine
  6
BYBLOCK
 62
0
370
  -2
 10
6329.04005354515
 20
1451.78548460558
 11
6335.70672021181
 21
1411.78548460558
  0
LINE
  5
752
100
AcDbEntity
  8
0
100
AcDbLine
  6
BYBLOCK
 62
0
370
  -2
 10
6335.70672021181
 20
1411.78548460558
 11
6335.70672021181
 21
1451.78548460558
  0
LINE
  5
753
100
AcDbEntity
  8
0
100
AcDbLine
  6
BYBLOCK
 62
0
370
  -2
 10
6329.04005354515
 20
2391.7854846027
 11
6335.70672021181
 21
2431.7854846027
  0
LINE
  5
754
100
AcDbEntity
  8
0
100
AcDbLine
  6
BYBLOCK
 62
0
370
  -2
 10
6342.37338687848
 20
2391.7854846027
 11
6335.70672021181
 21
2431.7854846027
  0
LINE
  5
755
100
AcDbEntity
  8
0
100
AcDbLine
  6
BYBLOCK
 62
0
370
  -2
 10
6335.70672021181
 20
2431.7854846027
 11
6335.70672021181
 21
2391.7854846027
  0
LINE
  5
756
100
AcDbEntity
  8
AM_5
100
AcDbLine
  6
BYLAYER
 10
5993.37338687849
 20
2498.45215126938
 11
6220.70672021181
 21
2498.45215126938
  0
LINE
  5
757
100
AcDbEntity
  8
AM_5
100
AcDbLine
  6
BYLAYER
 10
6017.37338687849
 20
2431.78548460271
 11
6220.70672021181
 21
2431.7854846027
  0
LINE
  5
758
100
AcDbEntity
  8
AM_5
100
AcDbLine
  6
BYLAYER
 10
6195.70672021181
 20
2391.7854846027
 11
6195.70672021181
 21
2351.78548460271
  0
LINE
  5
759
100
AcDbEntity
  8
AM_5
100
AcDbLine
  6
BYLAYER
 10
6195.70672021181
 20
2538.45215126938
 11
6195.70672021181
 21
2689.34262745985
  0
LINE
  5
75A
100
AcDbEntity
  8
AM_5
100
AcDbLine
  6
BYLAYER
 10
6195.70672021181
 20
2431.7854846027
 11
6195.70672021181
 21
2498.45215126938
  0
TEXT
  5
75B
100
AcDbEntity
  8
AM_5
100
AcDbText
  6
BYLAYER
 10
6180.08172021181
 20
2601.39738936461
 40
65
  1
10
  7
Font_0
 50
90
 72
1
 11
6147.58172021181
 21
2633.89738936461
100
AcDbText
 73
2
  0
LINE
  5
75C
100
AcDbEntity
  8
0
100
AcDbLine
  6
BYBLOCK
 62
0
370
  -2
 10
6189.04005354515
 20
2391.7854846027
 11
6195.70672021181
 21
2431.7854846027
  0
LINE
  5
75D
100
AcDbEntity
  8
0
100
AcDbLine
  6
BYBLOCK
 62
0
370
  -2
 10
6202.37338687848
 20
2391.7854846027
 11
6195.70672021181
 21
2431.7854846027
  0
LINE
  5
75E
100
AcDbEntity
  8
0
100
AcDbLine
  6
BYBLOCK
 62
0
370
  -2
 10
6195.70672021181
 20
2431.7854846027
 11
6195.70672021181
 21
2391.7854846027
  0
LINE
  5
75F
100
AcDbEntity
  8
0
100
AcDbLine
  6
BYBLOCK
 62
0
370
  -2
 10
6202.37338687848
 20
2538.45215126938
 11
6195.70672021181
 21
2498.45215126938
  0
LINE
  5
760
100
AcDbEntity
  8
0
100
AcDbLine
  6
BYBLOCK
 62
0
370
  -2
 10
6189.04005354515
 20
2538.45215126938
 11
6195.70672021181
 21
2498.45215126938
  0
LINE
  5
761
100
AcDbEntity
  8
0
100
AcDbLine
  6
BYBLOCK
 62
0
370
  -2
 10
6195.70672021181
 20
2498.45215126938
 11
6195.70672021181
 21
2538.45215126938
  0
LINE
  5
762
100
AcDbEntity
  8
AM_5
100
AcDbLine
  6
BYLAYER
 10
6017.37336961201
 20
1411.78548686574
 11
6220.70670294534
 21
1411.78548686574
  0
LINE
  5
763
100
AcDbEntity
  8
AM_5
100
AcDbLine
  6
BYLAYER
 10
5993.37338687849
 20
1345.11881794179
 11
6220.70670294534
 21
1345.11881794179
  0
LINE
  5
764
100
AcDbEntity
  8
AM_5
100
AcDbLine
  6
BYLAYER
 10
6195.70670294534
 20
1451.78548686574
 11
6195.70670294534
 21
1491.78548686574
  0
LINE
  5
765
100
AcDbEntity
  8
AM_5
100
AcDbLine
  6
BYLAYER
 10
6195.70670294534
 20
1305.11881794179
 11
6195.70670294534
 21
1154.22834175131
  0
LINE
  5
766
100
AcDbEntity
  8
AM_5
100
AcDbLine
  6
BYLAYER
 10
6195.70670294534
 20
1411.78548686574
 11
6195.70670294534
 21
1345.11881794179
  0
TEXT
  5
767
100
AcDbEntity
  8
AM_5
100
AcDbText
  6
BYLAYER
 10
6180.08170294534
 20
1177.17357984655
 40
65
  1
10
  7
Font_0
 50
90
 72
1
 11
6147.58170294534
 21
1209.67357984655
100
AcDbText
 73
2
  0
LINE
  5
768
100
AcDbEntity
  8
0
100
AcDbLine
  6
BYBLOCK
 62
0
370
  -2
 10
6202.37336961201
 20
1451.78548686574
 11
6195.70670294534
 21
1411.78548686574
  0
LINE
  5
769
100
AcDbEntity
  8
0
100
AcDbLine
  6
BYBLOCK
 62
0
370
  -2
 10
6189.04003627867
 20
1451.78548686574
 11
6195.70670294534
 21
1411.78548686574
  0
LINE
  5
76A
100
AcDbEntity
  8
0
100
AcDbLine
  6
BYBLOCK
 62
0
370
  -2
 10
6195.70670294534
 20
1411.78548686574
 11
6195.70670294534
 21
1451.78548686574
  0
LINE
  5
76B
100
AcDbEntity
  8
0
100
AcDbLine
  6
BYBLOCK
 62
0
370
  -2
 10
6189.04003627867
 20
1305.11881794179
 11
6195.70670294534
 21
1345.11881794179
  0
LINE
  5
76C
100
AcDbEntity
  8
0
100
AcDbLine
  6
BYBLOCK
 62
0
370
  -2
 10
6202.37336961201
 20
1305.11881794179
 11
6195.70670294534
 21
1345.11881794179
  0
LINE
  5
76D
100
AcDbEntity
  8
0
100
AcDbLine
  6
BYBLOCK
 62
0
370
  -2
 10
6195.70670294534
 20
1345.11881794179
 11
6195.70670294534
 21
1305.11881794179
  0
LINE
  5
76E
100
AcDbEntity
  8
AM_5
100
AcDbLine
  6
BYLAYER
 10
6732.4950409638
 20
3245.11881793891
 11
6442.52452835822
 21
3245.11881793891
  0
LINE
  5
76F
100
AcDbEntity
  8
AM_5
100
AcDbLine
  6
BYLAYER
 10
6442.52452835822
 20
3245.11881793891
 11
6351.18197819132
 21
3079.79468811412
  0
LINE
  5
770
100
AcDbEntity
  8
AM_5
100
AcDbLine
  6
CONTINUOUS
 10
6351.18197819132
 20
3079.79468811412
 11
6335.70672021181
 21
3051.78546837369
  0
TEXT
  5
771
100
AcDbEntity
  8
AM_5
 62
2
100
AcDbText
  6
BYLAYER
 62
2
 10
6707.5950409638
 20
3245.11881793891
 40
50
  1
 
  7
Font_0
100
AcDbText
  0
TEXT
  5
772
100
AcDbEntity
  8
AM_6
100
AcDbText
  6
BYLAYER
 10
6467.52452835822
 20
3270.11881793892
 40
63.99999999984
 41
0.83
  1
キャップ
  7
Font_0
100
AcDbText
  0
TEXT
  5
773
100
AcDbEntity
  8
AM_6
100
AcDbText
  6
BYLAYER
 10
6467.52452835822
 20
3156.11881793908
 40
63.99999999984
 41
0.83
  1
t2.0
  7
Font_0
 11
6467.52452835822
 21
3220.11881793892
100
AcDbText
 73
3
  0
LINE
  5
774
100
AcDbEntity
  8
AM_5
100
AcDbLine
  6
BYLAYER
 10
6695.03163956386
 20
779.591811952127
 11
6405.06112695828
 21
779.591811952127
  0
LINE
  5
775
100
AcDbEntity
  8
AM_5
100
AcDbLine
  6
BYLAYER
 10
6405.06112695828
 20
779.591811952127
 11
6351.18197819132
 21
877.109599328576
  0
LINE
  5
776
100
AcDbEntity
  8
AM_5
100
AcDbLine
  6
CONTINUOUS
 10
6351.18197819132
 20
877.109599328576
 11
6335.70672021181
 21
905.118819069006
  0
TEXT
  5
777
100
AcDbEntity
  8
AM_5
 62
2
100
AcDbText
  6
BYLAYER
 62
2
 10
6670.13163956386
 20
779.591811952127
 40
50
  1
 
  7
Font_0
100
AcDbText
  0
TEXT
  5
778
100
AcDbEntity
  8
AM_6
100
AcDbText
  6
BYLAYER
 10
6430.06112695828
 20
804.591811952131
 40
63.99999999984
 41
0.83
  1
キャップ
  7
Font_0
100
AcDbText
  0
TEXT
  5
779
100
AcDbEntity
  8
AM_6
100
AcDbText
  6
BYLAYER
 10
6430.06112695828
 20
690.591811952291
 40
63.99999999984
 41
0.83
  1
t2.0
  7
Font_0
 11
6430.06112695828
 21
754.591811952131
100
AcDbText
 73
3
  0
LINE
  5
77A
100
AcDbEntity
  8
AM_5
100
AcDbLine
  6
BYLAYER
 10
5072.37338687848
 20
4790.71767772156
 11
5072.37338687848
 21
5270.71767772156
  0
LINE
  5
77B
100
AcDbEntity
  8
AM_5
100
AcDbLine
  6
BYLAYER
 10
5285.70672021182
 20
4790.71767772156
 11
5285.70672021182
 21
5270.71767772156
  0
LINE
  5
77C
100
AcDbEntity
  8
AM_5
100
AcDbLine
  6
BYLAYER
 10
5112.37338687848
 20
5245.71767772156
 11
5245.70672021182
 21
5245.71767772156
  0
TEXT
  5
77D
100
AcDbEntity
  8
AM_5
100
AcDbText
  6
BYLAYER
 10
5146.54005354515
 20
5261.34267772156
 40
65
  1
32
  7
Font_0
 72
1
 11
5179.04005354515
 21
5293.84267772156
100
AcDbText
 73
2
  0
LINE
  5
77E
100
AcDbEntity
  8
0
100
AcDbLine
  6
BYBLOCK
 62
0
370
  -2
 10
5112.37338687848
 20
5239.05101105489
 11
5072.37338687848
 21
5245.71767772156
  0
LINE
  5
77F
100
AcDbEntity
  8
0
100
AcDbLine
  6
BYBLOCK
 62
0
370
  -2
 10
5112.37338687848
 20
5252.38434438823
 11
5072.37338687848
 21
5245.71767772156
  0
LINE
  5
780
100
AcDbEntity
  8
0
100
AcDbLine
  6
BYBLOCK
 62
0
370
  -2
 10
5072.37338687848
 20
5245.71767772156
 11
5112.37338687848
 21
5245.71767772156
  0
LINE
  5
781
100
AcDbEntity
  8
0
100
AcDbLine
  6
BYBLOCK
 62
0
370
  -2
 10
5245.70672021182
 20
5252.38434438823
 11
5285.70672021182
 21
5245.71767772156
  0
LINE
  5
782
100
AcDbEntity
  8
0
100
AcDbLine
  6
BYBLOCK
 62
0
370
  -2
 10
5245.70672021182
 20
5239.05101105489
 11
5285.70672021182
 21
5245.71767772156
  0
LINE
  5
783
100
AcDbEntity
  8
0
100
AcDbLine
  6
BYBLOCK
 62
0
370
  -2
 10
5285.70672021182
 20
5245.71767772156
 11
5245.70672021182
 21
5245.71767772156
  0
LINE
  5
784
100
AcDbEntity
  8
AM_5
100
AcDbLine
  6
BYLAYER
 10
7045.70672021182
 20
4790.71767772156
 11
7045.70672021182
 21
5270.71767772156
  0
LINE
  5
785
100
AcDbEntity
  8
AM_5
100
AcDbLine
  6
BYLAYER
 10
6832.37338687848
 20
4790.71767772156
 11
6832.37338687848
 21
5270.71767772156
  0
LINE
  5
786
100
AcDbEntity
  8
AM_5
100
AcDbLine
  6
BYLAYER
 10
7005.70672021182
 20
5245.71767772156
 11
6872.37338687848
 21
5245.71767772156
  0
TEXT
  5
787
100
AcDbEntity
  8
AM_5
100
AcDbText
  6
BYLAYER
 10
6906.54005354515
 20
5261.34267772156
 40
65
  1
32
  7
Font_0
 72
1
 11
6939.04005354515
 21
5293.84267772156
100
AcDbText
 73
2
  0
LINE
  5
788
100
AcDbEntity
  8
0
100
AcDbLine
  6
BYBLOCK
 62
0
370
  -2
 10
7005.70672021182
 20
5252.38434438823
 11
7045.70672021182
 21
5245.71767772156
  0
LINE
  5
789
100
AcDbEntity
  8
0
100
AcDbLine
  6
BYBLOCK
 62
0
370
  -2
 10
7005.70672021182
 20
5239.05101105489
 11
7045.70672021182
 21
5245.71767772156
  0
LINE
  5
78A
100
AcDbEntity
  8
0
100
AcDbLine
  6
BYBLOCK
 62
0
370
  -2
 10
7045.70672021182
 20
5245.71767772156
 11
7005.70672021182
 21
5245.71767772156
  0
LINE
  5
78B
100
AcDbEntity
  8
0
100
AcDbLine
  6
BYBLOCK
 62
0
370
  -2
 10
6872.37338687848
 20
5239.05101105489
 11
6832.37338687848
 21
5245.71767772156
  0
LINE
  5
78C
100
AcDbEntity
  8
0
100
AcDbLine
  6
BYBLOCK
 62
0
370
  -2
 10
6872.37338687848
 20
5252.38434438823
 11
6832.37338687848
 21
5245.71767772156
  0
LINE
  5
78D
100
AcDbEntity
  8
0
100
AcDbLine
  6
BYBLOCK
 62
0
370
  -2
 10
6832.37338687848
 20
5245.71767772156
 11
6872.37338687848
 21
5245.71767772156
  0
LINE
  5
78E
100
AcDbEntity
  8
AM_5
100
AcDbLine
  6
BYLAYER
 10
2773.5409546568
 20
4596.92752201057
 11
3113.54094761608
 21
4596.92752201057
  0
LINE
  5
78F
100
AcDbEntity
  8
AM_5
100
AcDbLine
  6
BYLAYER
 10
2773.54094691942
 20
3493.42751725301
 11
3113.54094761607
 21
3493.42751725301
  0
LINE
  5
790
100
AcDbEntity
  8
AM_5
100
AcDbLine
  6
BYLAYER
 10
3088.54094761608
 20
4556.92752201057
 11
3088.54094761608
 21
3533.42751725301
  0
TEXT
  5
791
100
AcDbEntity
  8
AM_5
100
AcDbText
  6
BYLAYER
 10
3072.91594761608
 20
3947.67751963179
 40
65
  1
1103.5
  7
Font_0
 50
90
 72
1
 11
3040.41594761608
 21
4045.17751963179
100
AcDbText
 73
2
  0
LINE
  5
792
100
AcDbEntity
  8
0
100
AcDbLine
  6
BYBLOCK
 62
0
370
  -2
 10
3081.87428094941
 20
4556.92752201057
 11
3088.54094761608
 21
4596.92752201057
  0
LINE
  5
793
100
AcDbEntity
  8
0
100
AcDbLine
  6
BYBLOCK
 62
0
370
  -2
 10
3095.20761428274
 20
4556.92752201057
 11
3088.54094761608
 21
4596.92752201057
  0
LINE
  5
794
100
AcDbEntity
  8
0
100
AcDbLine
  6
BYBLOCK
 62
0
370
  -2
 10
3088.54094761608
 20
4596.92752201057
 11
3088.54094761608
 21
4556.92752201057
  0
LINE
  5
795
100
AcDbEntity
  8
0
100
AcDbLine
  6
BYBLOCK
 62
0
370
  -2
 10
3095.20761428274
 20
3533.42751725301
 11
3088.54094761608
 21
3493.42751725301
  0
LINE
  5
796
100
AcDbEntity
  8
0
100
AcDbLine
  6
BYBLOCK
 62
0
370
  -2
 10
3081.87428094941
 20
3533.42751725301
 11
3088.54094761608
 21
3493.42751725301
  0
LINE
  5
797
100
AcDbEntity
  8
0
100
AcDbLine
  6
BYBLOCK
 62
0
370
  -2
 10
3088.54094761608
 20
3493.42751725301
 11
3088.54094761608
 21
3533.42751725301
  0
LINE
  5
798
100
AcDbEntity
  8
AM_5
100
AcDbLine
  6
BYLAYER
 10
6255.23550785237
 20
4965.71767744119
 11
6782.37338687848
 21
4965.71767744119
  0
LINE
  5
799
100
AcDbEntity
  8
AM_5
100
AcDbLine
  6
BYLAYER
 10
6782.37338687848
 20
4965.71767744119
 11
6981.8683059128
 21
4787.0655111418
  0
LINE
  5
79A
100
AcDbEntity
  8
AM_5
100
AcDbLine
  6
CONTINUOUS
 10
6981.8683059128
 20
4787.0655111418
 11
7005.70672021181
 21
4765.7176774412
  0
LINE
  5
79B
100
AcDbEntity
  8
AM_5
100
AcDbLine
  6
CONTINUOUS
 10
6979.05781030058
 20
4783.92712437482
 11
7005.70672021181
 21
4765.7176774412
  0
LINE
  5
79C
100
AcDbEntity
  8
AM_5
100
AcDbLine
  6
CONTINUOUS
 10
7005.70672021181
 20
4765.7176774412
 11
6984.67880152503
 21
4790.20389790879
  0
TEXT
  5
79D
100
AcDbEntity
  8
AM_5
 62
2
100
AcDbText
  6
BYLAYER
 62
2
 10
6255.13550785237
 20
4965.71767744119
 40
50
  1
 
  7
Font_0
 72
2
 11
6280.13550785237
 21
4965.71767744119
100
AcDbText
  0
TEXT
  5
79E
100
AcDbEntity
  8
AM_6
100
AcDbText
  6
BYLAYER
 10
6255.23550785237
 20
4990.7176774412
 40
63.99999999984
 41
0.83
  1
本体
  7
Font_0
100
AcDbText
  0
TEXT
  5
79F
100
AcDbEntity
  8
AM_6
100
AcDbText
  6
BYLAYER
 10
6255.23550785237
 20
4876.71767744136
 40
63.99999999984
 41
0.83
  1
アルミ押出し形材
  7
Font_0
 11
6255.23550785237
 21
4940.7176774412
100
AcDbText
 73
3
  0
LINE
  5
7A0
100
AcDbEntity
  8
AM_5
100
AcDbLine
  6
BYLAYER
 10
5868.06731533215
 20
4965.71767772156
 11
5335.70672021182
 21
4965.71767772156
  0
LINE
  5
7A1
100
AcDbEntity
  8
AM_5
100
AcDbLine
  6
BYLAYER
 10
5335.70672021182
 20
4965.71767772156
 11
5121.47750049642
 21
4808.0211687644
  0
LINE
  5
7A2
100
AcDbEntity
  8
AM_5
100
AcDbLine
  6
CONTINUOUS
 10
5121.47750049642
 20
4808.0211687644
 11
5095.70672021182
 21
4789.0510110549
  0
LINE
  5
7A3
100
AcDbEntity
  8
AM_5
100
AcDbLine
  6
CONTINUOUS
 10
5118.98003186548
 20
4811.4139563385
 11
5095.70672021182
 21
4789.0510110549
  0
LINE
  5
7A4
100
AcDbEntity
  8
AM_5
100
AcDbLine
  6
CONTINUOUS
 10
5095.70672021182
 20
4789.0510110549
 11
5123.97496912735
 21
4804.62838119029
  0
TEXT
  5
7A5
100
AcDbEntity
  8
AM_5
 62
2
100
AcDbText
  6
BYLAYER
 62
2
 10
5868.06731533215
 20
4965.71767772156
 40
50
  1
 
  7
Font_0
100
AcDbText
  0
TEXT
  5
7A6
100
AcDbEntity
  8
AM_6
100
AcDbText
  6
BYLAYER
 10
5360.70672021182
 20
4990.7176774412
 40
63.99999999984
 41
0.83
  1
支柱
  7
Font_0
100
AcDbText
  0
TEXT
  5
7A7
100
AcDbEntity
  8
AM_6
100
AcDbText
  6
BYLAYER
 10
5360.70672021182
 20
4876.71767744136
 40
63.99999999984
 41
0.83
  1
アルミ押出し形材
  7
Font_0
 11
5360.70672021182
 21
4940.7176774412
100
AcDbText
 73
3
  0
TEXT
  5
7A8
100
AcDbEntity
  8
AM_6
100
AcDbText
  6
BYLAYER
 10
6550.70672021181
 20
2207.78548460287
 40
63.99999999984
 41
0.83
  1
6.4mm
  7
Font_0
 11
6550.70672021181
 21
2271.78548460271
100
AcDbText
 73
3
  0
TEXT
  5
7A9
100
AcDbEntity
  8
AM_6
100
AcDbText
  6
BYLAYER
 10
6550.70672021181
 20
2292.78548460286
 40
63.99999999984
 41
0.83
  1
マグネットボード（ホワイト）
  7
Font_0
 11
6550.70672021181
 21
2356.7854846027
100
AcDbText
 73
3
  0
TEXT
  5
7AA
100
AcDbEntity
  8
AM_6
100
AcDbText
  6
BYLAYER
 10
6550.70672021181
 20
2406.78548460271
 40
63.99999999984
 41
0.83
  1
掲示ボード
  7
Font_0
100
AcDbText
  0
LINE
  5
7AB
100
AcDbEntity
  8
AM_5
100
AcDbLine
  6
BYLAYER
 10
2838.54094691941
 20
4716.92752201056
 11
2838.54094691941
 21
4921.92752360915
  0
LINE
  5
7AC
100
AcDbEntity
  8
AM_5
100
AcDbLine
  6
BYLAYER
 10
2748.54094691941
 20
4716.92752201056
 11
2748.54094691941
 21
4921.92752360915
  0
LINE
  5
7AD
100
AcDbEntity
  8
AM_5
100
AcDbLine
  6
BYLAYER
 10
2878.54094691941
 20
4896.92752360915
 11
2918.54094691941
 21
4896.92752360915
  0
LINE
  5
7AE
100
AcDbEntity
  8
AM_5
100
AcDbLine
  6
BYLAYER
 10
2708.54094691941
 20
4896.92752360915
 11
2668.54094691941
 21
4896.92752360915
  0
TEXT
  5
7AF
100
AcDbEntity
  8
AM_5
100
AcDbText
  6
BYLAYER
 10
2872.94083156171
 20
4912.55252360915
 40
65
  1
90
  7
Font_0
 72
1
 11
2905.44083156171
 21
4945.05252360915
100
AcDbText
 73
2
  0
LINE
  5
7B0
100
AcDbEntity
  8
AM_5
100
AcDbLine
  6
BYLAYER
 10
2838.54094691941
 20
4896.92752360915
 11
2748.54094691941
 21
4896.92752360915
  0
LINE
  5
7B1
100
AcDbEntity
  8
0
100
AcDbLine
  6
BYBLOCK
 62
0
370
  -2
 10
2878.54094691941
 20
4890.26085694249
 11
2838.54094691941
 21
4896.92752360915
  0
LINE
  5
7B2
100
AcDbEntity
  8
0
100
AcDbLine
  6
BYBLOCK
 62
0
370
  -2
 10
2878.54094691941
 20
4903.59419027582
 11
2838.54094691941
 21
4896.92752360915
  0
LINE
  5
7B3
100
AcDbEntity
  8
0
100
AcDbLine
  6
BYBLOCK
 62
0
370
  -2
 10
2838.54094691941
 20
4896.92752360915
 11
2878.54094691941
 21
4896.92752360915
  0
LINE
  5
7B4
100
AcDbEntity
  8
0
100
AcDbLine
  6
BYBLOCK
 62
0
370
  -2
 10
2708.54094691941
 20
4903.59419027582
 11
2748.54094691941
 21
4896.92752360915
  0
LINE
  5
7B5
100
AcDbEntity
  8
0
100
AcDbLine
  6
BYBLOCK
 62
0
370
  -2
 10
2708.54094691941
 20
4890.26085694249
 11
2748.54094691941
 21
4896.92752360915
  0
LINE
  5
7B6
100
AcDbEntity
  8
0
100
AcDbLine
  6
BYBLOCK
 62
0
370
  -2
 10
2748.54094691941
 20
4896.92752360915
 11
2708.54094691941
 21
4896.92752360915
  0
LINE
  5
7B7
100
AcDbEntity
  8
AM_5
100
AcDbLine
  6
BYLAYER
 10
2838.54094691941
 20
4896.92752360915
 11
2964.58607475149
 21
4896.92752360915
  0
LINE
  5
7B8
100
AcDbEntity
  8
AM_5
100
AcDbLine
  6
BYLAYER
 10
944.540946919411
 20
4716.92752201056
 11
944.540946919411
 21
4921.92752360915
  0
LINE
  5
7B9
100
AcDbEntity
  8
AM_5
100
AcDbLine
  6
BYLAYER
 10
1034.54094691941
 20
4716.92752201056
 11
1034.54094691941
 21
4921.92752360915
  0
LINE
  5
7BA
100
AcDbEntity
  8
AM_5
100
AcDbLine
  6
BYLAYER
 10
904.540946919411
 20
4896.92752360915
 11
864.540946919412
 21
4896.92752360915
  0
LINE
  5
7BB
100
AcDbEntity
  8
AM_5
100
AcDbLine
  6
BYLAYER
 10
1074.54094691941
 20
4896.92752360915
 11
1114.54094691941
 21
4896.92752360915
  0
TEXT
  5
7BC
100
AcDbEntity
  8
AM_5
100
AcDbText
  6
BYLAYER
 10
845.141062277111
 20
4912.55252360915
 40
65
  1
90
  7
Font_0
 72
1
 11
877.641062277111
 21
4945.05252360915
100
AcDbText
 73
2
  0
LINE
  5
7BD
100
AcDbEntity
  8
AM_5
100
AcDbLine
  6
BYLAYER
 10
944.540946919411
 20
4896.92752360915
 11
1034.54094691941
 21
4896.92752360915
  0
LINE
  5
7BE
100
AcDbEntity
  8
0
100
AcDbLine
  6
BYBLOCK
 62
0
370
  -2
 10
904.540946919411
 20
4903.59419027582
 11
944.540946919411
 21
4896.92752360915
  0
LINE
  5
7BF
100
AcDbEntity
  8
0
100
AcDbLine
  6
BYBLOCK
 62
0
370
  -2
 10
904.540946919411
 20
4890.26085694249
 11
944.540946919411
 21
4896.92752360915
  0
LINE
  5
7C0
100
AcDbEntity
  8
0
100
AcDbLine
  6
BYBLOCK
 62
0
370
  -2
 10
944.540946919411
 20
4896.92752360915
 11
904.540946919411
 21
4896.92752360915
  0
LINE
  5
7C1
100
AcDbEntity
  8
0
100
AcDbLine
  6
BYBLOCK
 62
0
370
  -2
 10
1074.54094691941
 20
4890.26085694249
 11
1034.54094691941
 21
4896.92752360915
  0
LINE
  5
7C2
100
AcDbEntity
  8
0
100
AcDbLine
  6
BYBLOCK
 62
0
370
  -2
 10
1074.54094691941
 20
4903.59419027582
 11
1034.54094691941
 21
4896.92752360915
  0
LINE
  5
7C3
100
AcDbEntity
  8
0
100
AcDbLine
  6
BYBLOCK
 62
0
370
  -2
 10
1034.54094691941
 20
4896.92752360915
 11
1074.54094691941
 21
4896.92752360915
  0
LINE
  5
7C4
100
AcDbEntity
  8
AM_5
100
AcDbLine
  6
BYLAYER
 10
944.540946919411
 20
4896.92752360915
 11
818.495819087333
 21
4896.92752360915
  0
TEXT
  5
7C5
100
AcDbEntity
  8
AM_6
100
AcDbText
  6
BYLAYER
 10
5013.08884521723
 20
2253.45215127225
 40
63.99999999984
 41
0.83
  1
保護板
  7
Font_0
100
AcDbText
  0
TEXT
  5
7C6
100
AcDbEntity
  8
AM_6
100
AcDbText
  6
BYLAYER
 10
5013.08884521723
 20
2139.45215127241
 40
63.99999999984
 41
0.78
  1
強化ガラス
  7
Font_0
 11
5013.08884521723
 21
2203.45215127224
100
AcDbText
 73
3
  0
TEXT
  5
7C7
100
AcDbEntity
  8
AM_6
100
AcDbText
  6
BYLAYER
 10
5013.08884521723
 20
2054.45215127241
 40
63.99999999984
 41
0.78
  1
5mm
  7
Font_0
 11
5013.08884521723
 21
2118.45215127225
100
AcDbText
 73
3
  0
LINE
  5
7C8
100
AcDbEntity
  8
AM_5
100
AcDbLine
  6
BYLAYER
 10
2432.7654772358
 20
3305.79346116184
 11
2382.80497194531
 21
3305.79346116184
  0
LINE
  5
7C9
100
AcDbEntity
  8
AM_5
100
AcDbLine
  6
BYLAYER
 10
2432.7654772358
 20
3405.79346116184
 11
2432.7654772358
 21
3305.79346116184
  0
LINE
  5
7CA
100
AcDbEntity
  8
AM_5
100
AcDbLine
  6
BYLAYER
 10
2382.80497194531
 20
3305.79346116184
 11
2350.80497194531
 21
3305.79346116184
  0
LINE
  5
7CB
100
AcDbEntity
  8
AM_5
100
AcDbLine
  6
BYLAYER
 10
2382.80497194531
 20
3310.00634106584
 11
2350.80497194531
 21
3305.79346116184
  0
LINE
  5
7CC
100
AcDbEntity
  8
AM_5
100
AcDbLine
  6
BYLAYER
 10
2350.80497194531
 20
3305.79346116184
 11
2382.80497194531
 21
3301.58058125784
  0
LINE
  5
7CD
100
AcDbEntity
  8
AM_0
100
AcDbLine
  6
BYLAYER
 10
764.540946919421
 20
801.927522010568
 11
2694.54094691942
 21
801.927522010568
  0
LINE
  5
7CE
100
AcDbEntity
  8
AM_0
100
AcDbLine
  6
BYLAYER
 10
764.540946919421
 20
1651.92752201057
 11
2694.54094691942
 21
1651.92752201057
  0
LINE
  5
7CF
100
AcDbEntity
  8
AM_0
100
AcDbLine
  6
BYLAYER
 10
764.540946919421
 20
1651.92752201057
 11
764.540946919421
 21
801.927522010568
  0
TEXT
  5
7D0
100
AcDbEntity
  8
AM_6
100
AcDbText
  6
BYLAYER
 10
831.20761358592
 20
1194.92752201065
 40
63.99999999984
 41
0.83
  1
　　　　　　（マグネット付）
  7
Font_0
 11
831.20761358592
 21
1226.92752201057
100
AcDbText
 73
2
  0
TEXT
  5
7D1
100
AcDbEntity
  8
AM_6
100
AcDbText
  6
BYLAYER
 10
831.20761358592
 20
864.927522010647
 40
63.99999999984
 41
0.83
  1
錠      前：プッシュ錠 キー付
  7
Font_0
 11
831.20761358592
 21
896.927522010567
100
AcDbText
 73
2
  0
TEXT
  5
7D2
100
AcDbEntity
  8
AM_6
100
AcDbText
  6
BYLAYER
 10
831.20761358592
 20
974.927522010647
 40
63.99999999984
 41
0.83
  1
保　護　板：強化ガラス 5mm
  7
Font_0
 11
831.20761358592
 21
1006.92752201057
100
AcDbText
 73
2
  0
TEXT
  5
7D3
100
AcDbEntity
  8
AM_6
100
AcDbText
  6
BYLAYER
 10
831.20761358592
 20
1304.92752201065
 40
63.99999999984
 41
0.83
  1
掲示ボード：マグネットボード（ホワイト）6.4mm
  7
Font_0
 11
831.20761358592
 21
1336.92752201057
100
AcDbText
 73
2
  0
LINE
  5
7D4
100
AcDbEntity
  8
AM_0
100
AcDbLine
  6
BYLAYER
 10
2694.54094691942
 20
1651.92752201057
 11
2694.54094691942
 21
801.927522010568
  0
TEXT
  5
7D5
100
AcDbEntity
  8
AM_6
100
AcDbText
  6
BYLAYER
 10
831.20761358592
 20
1414.92752201065
 40
63.99999999984
 41
0.83
  1
色　　　調：ＳＬＣ（サンシルバー）, ＢＤ（ダークブロンズ）
  7
Font_0
 11
831.20761358592
 21
1446.92752201057
100
AcDbText
 73
2
  0
TEXT
  5
7D6
100
AcDbEntity
  8
AM_6
100
AcDbText
  6
BYLAYER
 10
831.20761358592
 20
1524.92752201065
 40
63.99999999984
 41
0.83
  1
本体・支柱：アルミ押出し形材　クリアー付　　重量：58kg
  7
Font_0
 11
831.20761358592
 21
1556.92752201057
100
AcDbText
 73
2
  0
TEXT
  5
7D7
100
AcDbEntity
  8
AM_6
100
AcDbText
  6
BYLAYER
 10
831.20761358592
 20
1084.92752201065
 40
63.99999999984
 41
0.83
  1
照      明：なし
  7
Font_0
 11
831.20761358592
 21
1116.92752201057
100
AcDbText
 73
2
  0
TEXT
  5
7D8
100
AcDbEntity
  8
AM_6
100
AcDbText
  6
BYLAYER
 10
831.20761358592
 20
1719.92752201065
 40
63.99999999984
 41
0.83
  1
※有効W,有効Hは掲示可能寸法を示す。
  7
Font_0
 11
831.20761358592
 21
1751.92752201057
100
AcDbText
 73
2
  0
LINE
  5
7D9
100
AcDbEntity
  8
AM_0
100
AcDbLine
  6
BYLAYER
 10
2861.04094691942
 20
1651.92752201057
 11
3871.04094691943
 21
1651.92752201057
  0
LINE
  5
7DA
100
AcDbEntity
  8
AM_0
100
AcDbLine
  6
BYLAYER
 10
2861.04094691942
 20
1651.92752201057
 11
2861.04094691942
 21
801.927522010568
  0
LINE
  5
7DB
100
AcDbEntity
  8
AM_0
100
AcDbLine
  6
BYLAYER
 10
2861.04094691942
 20
1161.92752201057
 11
3871.04094691943
 21
1161.92752201057
  0
LINE
  5
7DC
100
AcDbEntity
  8
AM_0
100
AcDbLine
  6
BYLAYER
 10
2861.04094691942
 20
1161.92752201057
 11
3871.04094691943
 21
1161.92752201057
  0
LINE
  5
7DD
100
AcDbEntity
  8
AM_0
100
AcDbLine
  6
BYLAYER
 10
3261.04094691942
 20
1531.92752201057
 11
3871.04094691943
 21
1531.92752201057
  0
LINE
  5
7DE
100
AcDbEntity
  8
AM_0
100
AcDbLine
  6
BYLAYER
 10
3261.04094691942
 20
1651.92752201057
 11
3261.04094691942
 21
801.927522010568
  0
LINE
  5
7DF
100
AcDbEntity
  8
AM_0
100
AcDbLine
  6
BYLAYER
 10
3571.04094691943
 20
1531.92752201057
 11
3571.04094691942
 21
801.927522010568
  0
TEXT
  5
7E0
100
AcDbEntity
  8
AM_6
100
AcDbText
  6
BYLAYER
 10
2941.52094691942
 20
1439.92752201057
 40
64
 41
0.83
  1
Vo（m/s）
  7
Font_0
 72
1
 11
3061.04094691942
 21
1471.92752201057
100
AcDbText
 73
2
  0
LINE
  5
7E1
100
AcDbEntity
  8
AM_0
100
AcDbLine
  6
BYLAYER
 10
2861.04094691942
 20
1411.92752201057
 11
3871.04094691943
 21
1411.92752201057
  0
TEXT
  5
7E2
100
AcDbEntity
  8
AM_6
100
AcDbText
  6
BYLAYER
 10
3681.20094691943
 20
1439.92752201057
 40
64
 41
0.83
  1
100
  7
Font_0
 72
1
 11
3721.04094691943
 21
1471.92752201057
100
AcDbText
 73
2
  0
TEXT
  5
7E3
100
AcDbEntity
  8
AM_6
100
AcDbText
  6
BYLAYER
 10
3034.48094691942
 20
1309.92752201057
 40
64
 41
0.83
  1
30
  7
Font_0
 72
1
 11
3061.04094691942
 21
1341.92752201057
100
AcDbText
 73
2
  0
LINE
  5
7E4
100
AcDbEntity
  8
AM_0
100
AcDbLine
  6
BYLAYER
 10
2861.04094691942
 20
1281.92752201057
 11
3871.04094691943
 21
1281.92752201057
  0
TEXT
  5
7E5
100
AcDbEntity
  8
AM_6
100
AcDbText
  6
BYLAYER
 10
3681.20094691943
 20
1309.92752201057
 40
64
 41
0.83
  1
350
  7
Font_0
 72
1
 11
3721.04094691943
 21
1341.92752201057
100
AcDbText
 73
2
  0
TEXT
  5
7E6
100
AcDbEntity
  8
AM_6
100
AcDbText
  6
BYLAYER
 10
3034.48094691942
 20
1189.92752201057
 40
64
 41
0.83
  1
32
  7
Font_0
 72
1
 11
3061.04094691942
 21
1221.92752201057
100
AcDbText
 73
2
  0
TEXT
  5
7E7
100
AcDbEntity
  8
AM_6
100
AcDbText
  6
BYLAYER
 10
3681.20094691943
 20
1189.92752201057
 40
64
 41
0.83
  1
400
  7
Font_0
 72
1
 11
3721.04094691943
 21
1221.92752201057
100
AcDbText
 73
2
  0
LINE
  5
7E8
100
AcDbEntity
  8
AM_0
100
AcDbLine
  6
BYLAYER
 10
3871.04094691943
 20
1651.92752201057
 11
3871.04094691942
 21
801.927522010568
  0
TEXT
  5
7E9
100
AcDbEntity
  8
AM_6
100
AcDbText
  6
BYLAYER
 10
2954.80094691942
 20
1559.92752201057
 40
64
 41
0.83
  1
基準風速
  7
Font_0
 72
1
 11
3061.04094691942
 21
1591.92752201057
100
AcDbText
 73
2
  0
TEXT
  5
7EA
100
AcDbEntity
  8
AM_6
100
AcDbText
  6
BYLAYER
 10
3394.48094691943
 20
1439.92752201057
 40
64
 41
0.83
  1
50
  7
Font_0
 72
1
 11
3421.04094691943
 21
1471.92752201057
100
AcDbText
 73
2
  0
TEXT
  5
7EB
100
AcDbEntity
  8
AM_6
100
AcDbText
  6
BYLAYER
 10
3381.20094691942
 20
1309.92752201057
 40
64
 41
0.83
  1
500
  7
Font_0
 72
1
 11
3421.04094691943
 21
1341.92752201057
100
AcDbText
 73
2
  0
TEXT
  5
7EC
100
AcDbEntity
  8
AM_6
100
AcDbText
  6
BYLAYER
 10
3381.20094691942
 20
1189.92752201057
 40
64
 41
0.83
  1
550
  7
Font_0
 72
1
 11
3421.04094691943
 21
1221.92752201057
100
AcDbText
 73
2
  0
LINE
  5
7ED
100
AcDbEntity
  8
AM_0
100
AcDbLine
  6
BYLAYER
 10
2861.04094691942
 20
1801.92752201057
 11
3261.04094691942
 21
1801.92752201057
  0
LINE
  5
7EE
100
AcDbEntity
  8
AM_0
100
AcDbLine
  6
BYLAYER
 10
2861.04094691942
 20
1801.92752201057
 11
2861.04094691942
 21
1681.92752201057
  0
TEXT
  5
7EF
100
AcDbEntity
  8
AM_6
100
AcDbText
  6
BYLAYER
 10
2928.24094691976
 20
1709.92752201065
 40
63.99999999984
 41
0.83
  1
基礎寸法 a
  7
Font_0
 72
1
 11
3061.04094691942
 21
1741.92752201057
100
AcDbText
 73
2
  0
LINE
  5
7F0
100
AcDbEntity
  8
AM_0
100
AcDbLine
  6
BYLAYER
 10
3261.04094691943
 20
1801.92752201057
 11
3261.04094691942
 21
1681.92752201057
  0
LINE
  5
7F1
100
AcDbEntity
  8
AM_0
100
AcDbLine
  6
BYLAYER
 10
2861.04094691942
 20
1681.92752201057
 11
3261.04094691942
 21
1681.92752201057
  0
LINE
  5
7F2
100
AcDbEntity
  8
AM_0
100
AcDbLine
  6
BYLAYER
 10
2861.04094691942
 20
1681.92752201057
 11
3261.04094691942
 21
1681.92752201057
  0
LINE
  5
7F3
100
AcDbEntity
  8
AM_0
100
AcDbLine
  6
BYLAYER
 10
2861.04094691942
 20
1041.92752201057
 11
3871.04094691943
 21
1041.92752201057
  0
LINE
  5
7F4
100
AcDbEntity
  8
AM_0
100
AcDbLine
  6
BYLAYER
 10
2861.04094691942
 20
1041.92752201057
 11
3871.04094691943
 21
1041.92752201057
  0
TEXT
  5
7F5
100
AcDbEntity
  8
AM_6
100
AcDbText
  6
BYLAYER
 10
3034.48094691942
 20
1069.92752201057
 40
64
 41
0.83
  1
34
  7
Font_0
 72
1
 11
3061.04094691942
 21
1101.92752201057
100
AcDbText
 73
2
  0
TEXT
  5
7F6
100
AcDbEntity
  8
AM_6
100
AcDbText
  6
BYLAYER
 10
3681.20094691943
 20
1069.92752201057
 40
64
 41
0.83
  1
400
  7
Font_0
 72
1
 11
3721.04094691943
 21
1101.92752201057
100
AcDbText
 73
2
  0
TEXT
  5
7F7
100
AcDbEntity
  8
AM_6
100
AcDbText
  6
BYLAYER
 10
3381.20094691942
 20
1069.92752201057
 40
64
 41
0.83
  1
600
  7
Font_0
 72
1
 11
3421.04094691943
 21
1101.92752201057
100
AcDbText
 73
2
  0
LINE
  5
7F8
100
AcDbEntity
  8
AM_0
100
AcDbLine
  6
BYLAYER
 10
2861.04094691942
 20
921.927522010567
 11
3871.04094691943
 21
921.927522010569
  0
LINE
  5
7F9
100
AcDbEntity
  8
AM_0
100
AcDbLine
  6
BYLAYER
 10
2861.04094691942
 20
921.927522010567
 11
3871.04094691943
 21
921.927522010569
  0
TEXT
  5
7FA
100
AcDbEntity
  8
AM_6
100
AcDbText
  6
BYLAYER
 10
3034.48094691942
 20
949.927522010568
 40
64
 41
0.83
  1
36
  7
Font_0
 72
1
 11
3061.04094691942
 21
981.927522010568
100
AcDbText
 73
2
  0
TEXT
  5
7FB
100
AcDbEntity
  8
AM_6
100
AcDbText
  6
BYLAYER
 10
3681.20094691943
 20
949.927522010568
 40
64
 41
0.83
  1
450
  7
Font_0
 72
1
 11
3721.04094691943
 21
981.927522010568
100
AcDbText
 73
2
  0
TEXT
  5
7FC
100
AcDbEntity
  8
AM_6
100
AcDbText
  6
BYLAYER
 10
3381.20094691942
 20
949.927522010568
 40
64
 41
0.83
  1
600
  7
Font_0
 72
1
 11
3421.04094691943
 21
981.927522010568
100
AcDbText
 73
2
  0
LINE
  5
7FD
100
AcDbEntity
  8
AM_0
100
AcDbLine
  6
BYLAYER
 10
2861.04094691942
 20
801.927522010568
 11
3871.04094691943
 21
801.927522010568
  0
LINE
  5
7FE
100
AcDbEntity
  8
AM_0
100
AcDbLine
  6
BYLAYER
 10
2861.04094691942
 20
801.927522010568
 11
3871.04094691943
 21
801.927522010568
  0
TEXT
  5
7FF
100
AcDbEntity
  8
AM_6
100
AcDbText
  6
BYLAYER
 10
3034.48094691942
 20
829.927522010567
 40
64
 41
0.83
  1
38
  7
Font_0
 72
1
 11
3061.04094691942
 21
861.927522010567
100
AcDbText
 73
2
  0
TEXT
  5
800
100
AcDbEntity
  8
AM_6
100
AcDbText
  6
BYLAYER
 10
3681.20094691943
 20
829.927522010567
 40
64
 41
0.83
  1
500
  7
Font_0
 72
1
 11
3721.04094691943
 21
861.927522010567
100
AcDbText
 73
2
  0
TEXT
  5
801
100
AcDbEntity
  8
AM_6
100
AcDbText
  6
BYLAYER
 10
3381.20094691942
 20
829.927522010567
 40
64
 41
0.83
  1
650
  7
Font_0
 72
1
 11
3421.04094691943
 21
861.927522010567
100
AcDbText
 73
2
  0
LINE
  5
802
100
AcDbEntity
  8
AM_0
100
AcDbLine
  6
BYLAYER
 10
3271.04094691943
 20
1651.92752201057
 11
3271.04094691943
 21
801.927522010568
  0
LINE
  5
803
100
AcDbEntity
  8
AM_0
100
AcDbLine
  6
BYLAYER
 10
2861.04094691942
 20
1401.92752201057
 11
3871.04094691943
 21
1401.92752201057
  0
TEXT
  5
804
100
AcDbEntity
  8
AM_6
100
AcDbText
  6
BYLAYER
 10
3371.84094691943
 20
1559.92752201057
 40
64
 41
0.83
  1
地耐力（kN/m ）
  7
Font_0
 72
1
 11
3571.04094691943
 21
1591.92752201057
100
AcDbText
 73
2
  0
TEXT
  5
805
100
AcDbEntity
  8
AM_6
100
AcDbText
  6
BYLAYER
 10
3783.80186928147
 20
1602.80600514826
 40
21.3333333333333
 41
0.83
  1
2
  7
Font_0
 11
3783.80186928147
 21
1613.47267181493
100
AcDbText
 73
2
  0
TEXT
  5
806
100
AcDbEntity
  8
AM_6
100
AcDbText
  6
BYLAYER
 10
4675.70672021181
 20
690.591811952284
 40
63.99999999984
 41
0.83
  1
プッシュ錠 キー付
  7
Font_0
 11
4675.70672021181
 21
754.591811952124
100
AcDbText
 73
3
  0
TEXT
  5
807
100
AcDbEntity
  8
AM_6
100
AcDbText
  6
BYLAYER
 10
4675.70672021181
 20
804.591811952125
 40
63.99999999984
 41
0.83
  1
錠前
  7
Font_0
100
AcDbText
  0
LINE
  5
808
100
AcDbEntity
  8
AM_5
100
AcDbLine
  6
BYLAYER
 10
4675.70672021181
 20
779.591811952127
 11
5221.79739780191
 21
779.591811952127
  0
LINE
  5
809
100
AcDbEntity
  8
AM_5
100
AcDbLine
  6
BYLAYER
 10
5221.79739780191
 20
779.591811952127
 11
5329.89220821837
 21
1044.81873405783
  0
LINE
  5
80A
100
AcDbEntity
  8
AM_5
100
AcDbLine
  6
CONTINUOUS
 10
5329.89220821837
 20
1044.81873405783
 11
5341.96948374669
 21
1074.45215127241
  0
LINE
  5
80B
100
AcDbEntity
  8
AM_5
100
AcDbLine
  6
CONTINUOUS
 10
5333.79352158931
 20
1043.22873057757
 11
5341.96948374669
 21
1074.45215127241
  0
LINE
  5
80C
100
AcDbEntity
  8
AM_5
100
AcDbLine
  6
CONTINUOUS
 10
5341.96948374669
 20
1074.45215127241
 11
5325.99089484742
 21
1046.4087375381
  0
TEXT
  5
80D
100
AcDbEntity
  8
AM_5
 62
2
100
AcDbText
  6
BYLAYER
 62
2
 10
4650.70672021181
 20
779.591811952127
 40
50
  1
 
  7
Font_0
 72
2
 11
4675.70672021181
 21
779.591811952127
100
AcDbText
  0
LINE
  5
80E
100
AcDbEntity
  8
AM_5
100
AcDbLine
  6
BYLAYER
 10
7410.99080127867
 20
2381.78548460271
 11
6525.70672021182
 21
2381.78548460271
  0
LINE
  5
80F
100
AcDbEntity
  8
AM_5
100
AcDbLine
  6
BYLAYER
 10
6525.70672021182
 20
2381.78548460271
 11
5996.07289885133
 21
2075.41434293706
  0
LINE
  5
810
100
AcDbEntity
  8
AM_5
100
AcDbLine
  6
CONTINUOUS
 10
5996.07289885133
 20
2075.41434293706
 11
5968.37338687849
 21
2059.39132710151
  0
LINE
  5
811
100
AcDbEntity
  8
AM_5
100
AcDbLine
  6
CONTINUOUS
 10
5993.96342880711
 20
2079.06105285396
 11
5968.37338687849
 21
2059.39132710151
  0
LINE
  5
812
100
AcDbEntity
  8
AM_5
100
AcDbLine
  6
CONTINUOUS
 10
5968.37338687849
 20
2059.39132710151
 11
5998.18236889555
 21
2071.76763302015
  0
TEXT
  5
813
100
AcDbEntity
  8
AM_5
 62
2
100
AcDbText
  6
BYLAYER
 62
2
 10
7385.99080127867
 20
2381.78548460271
 40
50
  1
 
  7
Font_0
 72
2
 11
7410.99080127867
 21
2381.78548460271
100
AcDbText
  0
LINE
  5
814
100
AcDbEntity
  8
AM_7
100
AcDbLine
  6
BYLAYER
 10
989.54094691941
 20
2121.92752201056
 11
989.540946919409
 21
4691.92752201056
  0
LINE
  5
815
100
AcDbEntity
  8
AM_7
100
AcDbLine
  6
BYLAYER
 10
2793.54092707962
 20
2121.92752201056
 11
2793.54094836909
 21
4691.92752201056
  0
ENDSEC
  0
SECTION
  2
OBJECTS
  0
DICTIONARY
  5
816
100
AcDbDictionary
  3
ACAD_GROUP
350
817
  3
ACAD_MLINESTYLE
350
818
  0
DICTIONARY
  5
817
102
{ACAD_REACTORS
330
816
102
}
100
AcDbDictionary
  0
DICTIONARY
  5
818
102
{ACAD_REACTORS
330
816
102
}
100
AcDbDictionary
  3
STANDARD
350
819
  0
MLINESTYLE
  5
819
102
{ACAD_REACTORS
330
818
102
}
100
AcDbMlineStyle
  2
Standard
 70
     0
  3

 62
     0
 51
90.0
 52
90.0
 71
     2
 49
0.5
 62
   256
  6
ByLayer
 49
-0.5
 62
   256
  6
ByLayer
  0
ENDSEC
  0
EOF
